0
SECTION
2
HEADER
9
$INSUNITS
70
4
9
$ACADVER
1
AC1014
9
$HANDSEED
5
FFFF
0
ENDSEC
0
SECTION
2
TABLES
0
TABLE
2
VPORT
5
8
100
AcDbSymbolTable
0
ENDTAB
0
TABLE
2
LTYPE
5
5
100
AcDbSymbolTable
0
LTYPE
5
14
100
AcDbSymbolTableRecord
100
AcDbLinetypeTableRecord
2
BYBLOCK
70
0
0
LTYPE
5
15
100
AcDbSymbolTableRecord
100
AcDbLinetypeTableRecord
2
BYLAYER
70
0
0
ENDTAB
0
TABLE
2
LAYER
5
2
100
AcDbSymbolTable
70
2
0
LAYER
5
50
100
AcDbSymbolTableRecord
100
AcDbLayerTableRecord
2
0
70
0
6
CONTINUOUS
0
ENDTAB
0
TABLE
2
STYLE
5
3
100
AcDbSymbolTable
70
1
0
STYLE
5
11
100
AcDbSymbolTableRecord
100
AcDbTextStyleTableRecord
2
STANDARD
70
0
0
ENDTAB
0
TABLE
2
VIEW
5
6
100
AcDbSymbolTable
70
0
0
ENDTAB
0
TABLE
2
UCS
5
7
100
AcDbSymbolTable
70
0
0
ENDTAB
0
TABLE
2
APPID
5
9
100
AcDbSymbolTable
70
2
0
APPID
5
12
100
AcDbSymbolTableRecord
100
AcDbRegAppTableRecord
2
ACAD
70
0
0
ENDTAB
0
TABLE
2
DIMSTYLE
5
A
100
AcDbSymbolTable
70
1
0
ENDTAB
0
TABLE
2
BLOCK_RECORD
5
1
100
AcDbSymbolTable
70
1
0
BLOCK_RECORD
5
1F
100
AcDbSymbolTableRecord
100
AcDbBlockTableRecord
2
*MODEL_SPACE
0
BLOCK_RECORD
5
1B
100
AcDbSymbolTableRecord
100
AcDbBlockTableRecord
2
*PAPER_SPACE
0
ENDTAB
0
ENDSEC
0
SECTION
2
BLOCKS
0
BLOCK
5
20
100
AcDbEntity
100
AcDbBlockBegin
2
*MODEL_SPACE
0
ENDBLK
5
21
100
AcDbEntity
100
AcDbBlockEnd
0
BLOCK
5
1C
100
AcDbEntity
100
AcDbBlockBegin
2
*PAPER_SPACE
0
ENDBLK
5
1D
100
AcDbEntity
100
AcDbBlockEnd
0
ENDSEC
0
SECTION
2
ENTITIES
0
LINE
5
100
100
AcDbEntity
8
0
100
AcDbLine
10
-250
20
-975
30
0
11
-220
21
-975
31
0
0
SPLINE
5
101
100
AcDbEntity
8
0
100
AcDbSpline
70
12
71
2
41
1
41
2.333333333333329
41
1
72
6
73
3
74
0
42
0.000000001
43
0.0000000001
44
0.0000000001
40
0
40
0
40
0
40
100.38095516826954
40
100.38095516826954
40
100.38095516826954
10
-250
20
25
30
0
10
-300
20
-100
30
0
10
-300
20
-975
30
0
0
LINE
5
102
100
AcDbEntity
8
0
100
AcDbLine
10
50
20
15.999999999999943
30
0
11
50
21
-25
31
0
0
LINE
5
103
100
AcDbEntity
8
0
100
AcDbLine
10
50
20
-25
30
0
11
-200
21
-25
31
0
0
LINE
5
104
100
AcDbEntity
8
0
100
AcDbLine
10
-300
20
-975
30
0
11
-400
21
-975
31
0
0
LINE
5
105
100
AcDbEntity
8
0
100
AcDbLine
10
-400
20
-975
30
0
11
-400
21
-1025
31
0
0
LINE
5
106
100
AcDbEntity
8
0
100
AcDbLine
10
65.647429827043027
20
-134.00000000000006
30
0
11
65.647429827043027
21
-175
31
0
0
LINE
5
107
100
AcDbEntity
8
0
100
AcDbLine
10
65.647429827043027
20
-175
30
0
11
-184.35257017295697
21
-175
31
0
0
LINE
5
108
100
AcDbEntity
8
0
100
AcDbLine
10
-184.35257017295697
20
-175
30
0
11
-239.74574005929074
21
-175.00000135737395
31
0
0
SPLINE
5
109
100
AcDbEntity
8
0
100
AcDbSpline
70
12
71
2
41
1
41
1.1216092185303304
41
1
72
6
73
3
74
0
42
0.000000001
43
0.0000000001
44
0.0000000001
40
0
40
0
40
0
40
10.651506992901375
40
10.651506992901375
40
10.651506992901375
10
-234.35257017295697
20
-125
30
0
10
-225.06180948838877
20
-60.740745094693708
30
0
10
-200
20
-25
30
0
0
LINE
5
110
100
AcDbEntity
8
0
100
AcDbLine
10
65.647429827043027
20
-134.00000000000006
30
0
11
65.647429827043027
21
-175
31
0
0
LINE
5
111
100
AcDbEntity
8
0
100
AcDbLine
10
65.647429827043027
20
-175
30
0
11
-184.35257017295697
21
-175
31
0
0
LINE
5
112
100
AcDbEntity
8
0
100
AcDbLine
10
53.081158270614424
20
-384.00000000000006
30
0
11
53.081158270614424
21
-425
31
0
0
LINE
5
113
100
AcDbEntity
8
0
100
AcDbLine
10
53.081158270614424
20
-425
30
0
11
-196.91884172938558
21
-425
31
0
0
SPLINE
5
114
100
AcDbEntity
8
0
100
AcDbSpline
70
12
71
2
41
1
41
1.0365978212385198
41
1
72
6
73
3
74
0
42
0.000000001
43
0.0000000001
44
0.0000000001
40
0
40
0
40
0
40
20.014767213687453
40
20.014767213687453
40
20.014767213687453
10
-246.91884172938558
20
-375
30
0
10
-244.57750858358094
20
-235.51228802429426
30
0
10
-239.74574005929074
20
-175.00000135737395
30
0
0
LINE
5
115
100
AcDbEntity
8
0
100
AcDbLine
10
-196.91884172938558
20
-425
30
0
11
-247.65607564878229
21
-425
31
0
0
LINE
5
116
100
AcDbEntity
8
0
100
AcDbLine
10
50.479357787591645
20
-725
30
0
11
-199.52064221240835
21
-725
31
0
0
LINE
5
117
100
AcDbEntity
8
0
100
AcDbLine
10
-199.52064221240835
20
-725
30
0
11
-249.68627248090658
21
-725.00000003696539
31
0
0
SPLINE
5
118
100
AcDbEntity
8
0
100
AcDbSpline
70
12
71
2
41
1
41
1.0069267374881514
41
1
72
6
73
3
74
0
42
0.000000001
43
0.0000000001
44
0.0000000001
40
0
40
0
40
0
40
25.000025983493252
40
25.000025983493252
40
25.000025983493252
10
-250
20
-975
30
0
10
-250.00000000000003
20
-834.31101375796868
30
0
10
-249.68627248090658
20
-725.00000003696539
30
0
0
SPLINE
5
119
100
AcDbEntity
8
0
100
AcDbSpline
70
12
71
2
41
1
41
1.0147785454680034
41
1
72
6
73
3
74
0
42
0.000000001
43
0.0000000001
44
0.0000000001
40
0
40
0
40
0
40
25.000757107547443
40
25.000757107547443
40
25.000757107547443
10
-249.52064221240835
20
-675
30
0
10
-248.95544716441503
20
-525.58816944458545
30
0
10
-247.65607564878229
20
-425
30
0
0
LINE
5
120
100
AcDbEntity
8
0
100
AcDbLine
10
565.64742982704297
20
-125
30
0
11
715.64742982704297
21
-125
31
0
0
LINE
5
121
100
AcDbEntity
8
0
100
AcDbLine
10
250
20
-975
30
0
11
250
21
-1025
31
0
0
LINE
5
122
100
AcDbEntity
8
0
100
AcDbLine
10
715.64742982704297
20
-175
30
0
11
465.64742982704303
21
-175
31
0
0
LINE
5
123
100
AcDbEntity
8
0
100
AcDbLine
10
453.08115827061442
20
-425
30
0
11
402.34392435121771
21
-425
31
0
0
SPLINE
5
124
100
AcDbEntity
8
0
100
AcDbSpline
70
12
71
2
41
1
41
2.333333333333329
41
1
72
6
73
3
74
0
42
0.000000001
43
0.0000000001
44
0.0000000001
40
0
40
0
40
0
40
100.38095516826954
40
100.38095516826954
40
100.38095516826954
10
400
20
25
30
0
10
350
20
-100
30
0
10
350
20
-975
30
0
0
LINE
5
125
100
AcDbEntity
8
0
100
AcDbLine
10
553.08115827061442
20
-375
30
0
11
703.08115827061442
21
-375
31
0
0
LINE
5
126
100
AcDbEntity
8
0
100
AcDbLine
10
250
20
-1025
30
0
11
750
21
-1025
31
0
0
LINE
5
127
100
AcDbEntity
8
0
100
AcDbLine
10
465.64742982704303
20
-175
30
0
11
410.25425994070929
21
-175.00000135737395
31
0
0
LINE
5
128
100
AcDbEntity
8
0
100
AcDbLine
10
565.64742982704297
20
-125
30
0
11
715.64742982704297
21
-125
31
0
0
LINE
5
129
100
AcDbEntity
8
0
100
AcDbLine
10
700.47935778759165
20
-725
30
0
11
450.47935778759165
21
-725
31
0
0
LINE
5
130
100
AcDbEntity
8
0
100
AcDbLine
10
700.47935778759165
20
-684
30
0
11
700.47935778759165
21
-725
31
0
0
LINE
5
131
100
AcDbEntity
8
0
100
AcDbLine
10
703.08115827061442
20
-384.00000000000006
30
0
11
703.08115827061442
21
-425
31
0
0
LINE
5
132
100
AcDbEntity
8
0
100
AcDbLine
10
700
20
25
30
0
11
550
21
25
31
0
0
LINE
5
133
100
AcDbEntity
8
0
100
AcDbLine
10
700
20
15.999999999999943
30
0
11
700
21
-25
31
0
0
LINE
5
134
100
AcDbEntity
8
0
100
AcDbLine
10
715.64742982704297
20
-175
30
0
11
465.64742982704303
21
-175
31
0
0
LINE
5
135
100
AcDbEntity
8
0
100
AcDbLine
10
703.08115827061442
20
-425
30
0
11
453.08115827061442
21
-425
31
0
0
LINE
5
136
100
AcDbEntity
8
0
100
AcDbLine
10
715.64742982704297
20
-134.00000000000006
30
0
11
715.64742982704297
21
-175
31
0
0
LINE
5
137
100
AcDbEntity
8
0
100
AcDbLine
10
715.64742982704297
20
-134.00000000000006
30
0
11
715.64742982704297
21
-175
31
0
0
LINE
5
138
100
AcDbEntity
8
0
100
AcDbLine
10
350
20
-975
30
0
11
250
21
-975
31
0
0
LINE
5
139
100
AcDbEntity
8
0
100
AcDbLine
10
450.47935778759165
20
-725
30
0
11
400.31372751909345
21
-725.00000003696539
31
0
0
LINE
5
140
100
AcDbEntity
8
0
100
AcDbLine
10
750
20
-1025
30
0
11
750
21
-984
31
0
0
LINE
5
141
100
AcDbEntity
8
0
100
AcDbLine
10
700
20
-25
30
0
11
450
21
-25
31
0
0
LINE
5
142
100
AcDbEntity
8
0
100
AcDbLine
10
550.47935778759165
20
-675
30
0
11
700.47935778759165
21
-675
31
0
0
LINE
5
143
100
AcDbEntity
8
0
100
AcDbLine
10
50.479357787591645
20
-684
30
0
11
20.479357787591645
21
-684
31
0
0
LINE
5
144
100
AcDbEntity
8
0
100
AcDbLine
10
20.479357787591645
20
-684
30
0
11
20.479357787591645
21
-675
31
0
0
LINE
5
145
100
AcDbEntity
8
0
100
AcDbLine
10
50.479357787591645
20
-684
30
0
11
50.479357787591645
21
-725
31
0
0
LINE
5
146
100
AcDbEntity
8
0
100
AcDbLine
10
-39.520642212408355
20
-684
30
0
11
-39.520642212408355
21
-675
31
0
0
LINE
5
147
100
AcDbEntity
8
0
100
AcDbLine
10
-9.5206422124083545
20
-684
30
0
11
-39.520642212408355
21
-684
31
0
0
LINE
5
148
100
AcDbEntity
8
0
100
AcDbLine
10
-9.5206422124083545
20
-684
30
0
11
-9.5206422124083545
21
-675
31
0
0
LINE
5
149
100
AcDbEntity
8
0
100
AcDbLine
10
-99.520642212408347
20
-684
30
0
11
-99.520642212408347
21
-675
31
0
0
LINE
5
150
100
AcDbEntity
8
0
100
AcDbLine
10
-69.520642212408347
20
-684
30
0
11
-99.520642212408347
21
-684
31
0
0
LINE
5
151
100
AcDbEntity
8
0
100
AcDbLine
10
-69.520642212408347
20
-684
30
0
11
-69.520642212408347
21
-675
31
0
0
LINE
5
152
100
AcDbEntity
8
0
100
AcDbLine
10
-159.52064221240835
20
-684
30
0
11
-159.52064221240835
21
-675
31
0
0
LINE
5
153
100
AcDbEntity
8
0
100
AcDbLine
10
-129.52064221240835
20
-684
30
0
11
-159.52064221240835
21
-684
31
0
0
LINE
5
154
100
AcDbEntity
8
0
100
AcDbLine
10
-129.52064221240835
20
-684
30
0
11
-129.52064221240835
21
-675
31
0
0
LINE
5
155
100
AcDbEntity
8
0
100
AcDbLine
10
-219.52064221240835
20
-684
30
0
11
-219.52064221240835
21
-675
31
0
0
LINE
5
156
100
AcDbEntity
8
0
100
AcDbLine
10
-189.52064221240835
20
-684
30
0
11
-219.52064221240835
21
-684
31
0
0
LINE
5
157
100
AcDbEntity
8
0
100
AcDbLine
10
-189.52064221240835
20
-684
30
0
11
-189.52064221240835
21
-675
31
0
0
LINE
5
158
100
AcDbEntity
8
0
100
AcDbLine
10
-9.5206422124083545
20
-675
30
0
11
20.479357787591645
21
-675
31
0
0
LINE
5
159
100
AcDbEntity
8
0
100
AcDbLine
10
-69.520642212408347
20
-675
30
0
11
-39.520642212408355
21
-675
31
0
0
LINE
5
160
100
AcDbEntity
8
0
100
AcDbLine
10
-129.52064221240835
20
-675
30
0
11
-99.520642212408347
21
-675
31
0
0
LINE
5
161
100
AcDbEntity
8
0
100
AcDbLine
10
-249.52064221240835
20
-675
30
0
11
-219.52064221240835
21
-675
31
0
0
LINE
5
162
100
AcDbEntity
8
0
100
AcDbLine
10
-189.52064221240835
20
-675
30
0
11
-159.52064221240835
21
-675
31
0
0
LINE
5
163
100
AcDbEntity
8
0
100
AcDbLine
10
50
20
-984
30
0
11
20
21
-984
31
0
0
LINE
5
164
100
AcDbEntity
8
0
100
AcDbLine
10
20
20
-984
30
0
11
20
21
-975
31
0
0
LINE
5
165
100
AcDbEntity
8
0
100
AcDbLine
10
-130
20
-984
30
0
11
-160
21
-984
31
0
0
LINE
5
166
100
AcDbEntity
8
0
100
AcDbLine
10
-130
20
-984
30
0
11
-130
21
-975
31
0
0
LINE
5
167
100
AcDbEntity
8
0
100
AcDbLine
10
-220
20
-984
30
0
11
-220
21
-975
31
0
0
LINE
5
168
100
AcDbEntity
8
0
100
AcDbLine
10
-190
20
-984
30
0
11
-220
21
-984
31
0
0
LINE
5
169
100
AcDbEntity
8
0
100
AcDbLine
10
-10
20
-975
30
0
11
20
21
-975
31
0
0
LINE
5
170
100
AcDbEntity
8
0
100
AcDbLine
10
-70
20
-975
30
0
11
-40
21
-975
31
0
0
LINE
5
171
100
AcDbEntity
8
0
100
AcDbLine
10
-130
20
-975
30
0
11
-100
21
-975
31
0
0
LINE
5
172
100
AcDbEntity
8
0
100
AcDbLine
10
-250
20
-975
30
0
11
-220
21
-975
31
0
0
LINE
5
173
100
AcDbEntity
8
0
100
AcDbLine
10
-190
20
-975
30
0
11
-160
21
-975
31
0
0
LINE
5
174
100
AcDbEntity
8
0
100
AcDbLine
10
-190
20
-984
30
0
11
-190
21
-975
31
0
0
LINE
5
175
100
AcDbEntity
8
0
100
AcDbLine
10
-40
20
-984
30
0
11
-40
21
-975
31
0
0
LINE
5
176
100
AcDbEntity
8
0
100
AcDbLine
10
-10
20
-984
30
0
11
-40
21
-984
31
0
0
LINE
5
177
100
AcDbEntity
8
0
100
AcDbLine
10
-10
20
-984
30
0
11
-10
21
-975
31
0
0
LINE
5
178
100
AcDbEntity
8
0
100
AcDbLine
10
-100
20
-984
30
0
11
-100
21
-975
31
0
0
LINE
5
179
100
AcDbEntity
8
0
100
AcDbLine
10
-70
20
-984
30
0
11
-100
21
-984
31
0
0
LINE
5
180
100
AcDbEntity
8
0
100
AcDbLine
10
-70
20
-984
30
0
11
-70
21
-975
31
0
0
LINE
5
181
100
AcDbEntity
8
0
100
AcDbLine
10
-160
20
-984
30
0
11
-160
21
-975
31
0
0
LINE
5
182
100
AcDbEntity
8
0
100
AcDbLine
10
53.081158270614424
20
-384.00000000000006
30
0
11
23.081158270614424
21
-384.00000000000006
31
0
0
LINE
5
183
100
AcDbEntity
8
0
100
AcDbLine
10
23.081158270614424
20
-384.00000000000006
30
0
11
23.081158270614424
21
-375
31
0
0
LINE
5
184
100
AcDbEntity
8
0
100
AcDbLine
10
-126.91884172938558
20
-384.00000000000006
30
0
11
-156.91884172938558
21
-384.00000000000006
31
0
0
LINE
5
185
100
AcDbEntity
8
0
100
AcDbLine
10
-126.91884172938558
20
-384.00000000000006
30
0
11
-126.91884172938558
21
-375
31
0
0
LINE
5
186
100
AcDbEntity
8
0
100
AcDbLine
10
-216.91884172938558
20
-384.00000000000006
30
0
11
-216.91884172938558
21
-375
31
0
0
LINE
5
187
100
AcDbEntity
8
0
100
AcDbLine
10
-186.91884172938558
20
-384.00000000000006
30
0
11
-216.91884172938558
21
-384.00000000000006
31
0
0
LINE
5
188
100
AcDbEntity
8
0
100
AcDbLine
10
-6.9188417293855764
20
-375
30
0
11
23.081158270614424
21
-375
31
0
0
LINE
5
189
100
AcDbEntity
8
0
100
AcDbLine
10
-66.918841729385576
20
-375
30
0
11
-36.918841729385576
21
-375
31
0
0
LINE
5
190
100
AcDbEntity
8
0
100
AcDbLine
10
-126.91884172938558
20
-375
30
0
11
-96.918841729385576
21
-375
31
0
0
LINE
5
191
100
AcDbEntity
8
0
100
AcDbLine
10
-246.91884172938558
20
-375
30
0
11
-216.91884172938558
21
-375
31
0
0
LINE
5
192
100
AcDbEntity
8
0
100
AcDbLine
10
-186.91884172938558
20
-375
30
0
11
-156.91884172938558
21
-375
31
0
0
LINE
5
193
100
AcDbEntity
8
0
100
AcDbLine
10
-186.91884172938558
20
-384.00000000000006
30
0
11
-186.91884172938558
21
-375
31
0
0
LINE
5
194
100
AcDbEntity
8
0
100
AcDbLine
10
-36.918841729385576
20
-384.00000000000006
30
0
11
-36.918841729385576
21
-375
31
0
0
LINE
5
195
100
AcDbEntity
8
0
100
AcDbLine
10
-6.9188417293855764
20
-384.00000000000006
30
0
11
-36.918841729385576
21
-384.00000000000006
31
0
0
LINE
5
196
100
AcDbEntity
8
0
100
AcDbLine
10
-6.9188417293855764
20
-384.00000000000006
30
0
11
-6.9188417293855764
21
-375
31
0
0
LINE
5
197
100
AcDbEntity
8
0
100
AcDbLine
10
-96.918841729385576
20
-384.00000000000006
30
0
11
-96.918841729385576
21
-375
31
0
0
LINE
5
198
100
AcDbEntity
8
0
100
AcDbLine
10
-66.918841729385576
20
-384.00000000000006
30
0
11
-96.918841729385576
21
-384.00000000000006
31
0
0
LINE
5
199
100
AcDbEntity
8
0
100
AcDbLine
10
-66.918841729385576
20
-384.00000000000006
30
0
11
-66.918841729385576
21
-375
31
0
0
LINE
5
200
100
AcDbEntity
8
0
100
AcDbLine
10
-156.91884172938558
20
-384.00000000000006
30
0
11
-156.91884172938558
21
-375
31
0
0
LINE
5
201
100
AcDbEntity
8
0
100
AcDbLine
10
65.647429827043027
20
-134.00000000000006
30
0
11
35.647429827043027
21
-134.00000000000006
31
0
0
LINE
5
202
100
AcDbEntity
8
0
100
AcDbLine
10
35.647429827043027
20
-134.00000000000006
30
0
11
35.647429827043027
21
-125
31
0
0
LINE
5
203
100
AcDbEntity
8
0
100
AcDbLine
10
-114.35257017295697
20
-134.00000000000006
30
0
11
-144.35257017295697
21
-134.00000000000006
31
0
0
LINE
5
204
100
AcDbEntity
8
0
100
AcDbLine
10
-114.35257017295697
20
-134.00000000000006
30
0
11
-114.35257017295697
21
-125
31
0
0
LINE
5
205
100
AcDbEntity
8
0
100
AcDbLine
10
-204.35257017295697
20
-134.00000000000006
30
0
11
-204.35257017295697
21
-125
31
0
0
LINE
5
206
100
AcDbEntity
8
0
100
AcDbLine
10
-174.35257017295697
20
-134.00000000000006
30
0
11
-204.35257017295697
21
-134.00000000000006
31
0
0
LINE
5
207
100
AcDbEntity
8
0
100
AcDbLine
10
5.6474298270430268
20
-125
30
0
11
35.647429827043027
21
-125
31
0
0
LINE
5
208
100
AcDbEntity
8
0
100
AcDbLine
10
-54.352570172956973
20
-125
30
0
11
-24.352570172956973
21
-125
31
0
0
LINE
5
209
100
AcDbEntity
8
0
100
AcDbLine
10
-114.35257017295697
20
-125
30
0
11
-84.352570172956973
21
-125
31
0
0
LINE
5
210
100
AcDbEntity
8
0
100
AcDbLine
10
-234.35257017295697
20
-125
30
0
11
-204.35257017295697
21
-125
31
0
0
LINE
5
211
100
AcDbEntity
8
0
100
AcDbLine
10
-174.35257017295697
20
-125
30
0
11
-144.35257017295697
21
-125
31
0
0
LINE
5
212
100
AcDbEntity
8
0
100
AcDbLine
10
-174.35257017295697
20
-134.00000000000006
30
0
11
-174.35257017295697
21
-125
31
0
0
LINE
5
213
100
AcDbEntity
8
0
100
AcDbLine
10
-24.352570172956973
20
-134.00000000000006
30
0
11
-24.352570172956973
21
-125
31
0
0
LINE
5
214
100
AcDbEntity
8
0
100
AcDbLine
10
5.6474298270430268
20
-134.00000000000006
30
0
11
-24.352570172956973
21
-134.00000000000006
31
0
0
LINE
5
215
100
AcDbEntity
8
0
100
AcDbLine
10
5.6474298270430268
20
-134.00000000000006
30
0
11
5.6474298270430268
21
-125
31
0
0
LINE
5
216
100
AcDbEntity
8
0
100
AcDbLine
10
-84.352570172956973
20
-134.00000000000006
30
0
11
-84.352570172956973
21
-125
31
0
0
LINE
5
217
100
AcDbEntity
8
0
100
AcDbLine
10
-54.352570172956973
20
-134.00000000000006
30
0
11
-84.352570172956973
21
-134.00000000000006
31
0
0
LINE
5
218
100
AcDbEntity
8
0
100
AcDbLine
10
-54.352570172956973
20
-134.00000000000006
30
0
11
-54.352570172956973
21
-125
31
0
0
LINE
5
219
100
AcDbEntity
8
0
100
AcDbLine
10
-144.35257017295697
20
-134.00000000000006
30
0
11
-144.35257017295697
21
-125
31
0
0
LINE
5
220
100
AcDbEntity
8
0
100
AcDbLine
10
50
20
15.999999999999943
30
0
11
20
21
15.999999999999943
31
0
0
LINE
5
221
100
AcDbEntity
8
0
100
AcDbLine
10
20
20
15.999999999999943
30
0
11
20
21
25
31
0
0
LINE
5
222
100
AcDbEntity
8
0
100
AcDbLine
10
-130
20
15.999999999999943
30
0
11
-160
21
15.999999999999943
31
0
0
LINE
5
223
100
AcDbEntity
8
0
100
AcDbLine
10
-130
20
15.999999999999943
30
0
11
-130
21
25
31
0
0
LINE
5
224
100
AcDbEntity
8
0
100
AcDbLine
10
-220
20
15.999999999999943
30
0
11
-220
21
25
31
0
0
LINE
5
225
100
AcDbEntity
8
0
100
AcDbLine
10
-190
20
15.999999999999943
30
0
11
-220
21
15.999999999999943
31
0
0
LINE
5
226
100
AcDbEntity
8
0
100
AcDbLine
10
-10
20
25
30
0
11
20
21
25
31
0
0
LINE
5
227
100
AcDbEntity
8
0
100
AcDbLine
10
-70
20
25
30
0
11
-40
21
25
31
0
0
LINE
5
228
100
AcDbEntity
8
0
100
AcDbLine
10
-130
20
25
30
0
11
-100
21
25
31
0
0
LINE
5
229
100
AcDbEntity
8
0
100
AcDbLine
10
-250
20
25
30
0
11
-220
21
25
31
0
0
LINE
5
230
100
AcDbEntity
8
0
100
AcDbLine
10
-190
20
25
30
0
11
-160
21
25
31
0
0
LINE
5
231
100
AcDbEntity
8
0
100
AcDbLine
10
-190
20
15.999999999999943
30
0
11
-190
21
25
31
0
0
LINE
5
232
100
AcDbEntity
8
0
100
AcDbLine
10
-40
20
15.999999999999943
30
0
11
-40
21
25
31
0
0
LINE
5
233
100
AcDbEntity
8
0
100
AcDbLine
10
-10
20
15.999999999999943
30
0
11
-40
21
15.999999999999943
31
0
0
LINE
5
234
100
AcDbEntity
8
0
100
AcDbLine
10
-10
20
15.999999999999943
30
0
11
-10
21
25
31
0
0
LINE
5
235
100
AcDbEntity
8
0
100
AcDbLine
10
-100
20
15.999999999999943
30
0
11
-100
21
25
31
0
0
LINE
5
236
100
AcDbEntity
8
0
100
AcDbLine
10
-70
20
15.999999999999943
30
0
11
-100
21
15.999999999999943
31
0
0
LINE
5
237
100
AcDbEntity
8
0
100
AcDbLine
10
-70
20
15.999999999999943
30
0
11
-70
21
25
31
0
0
LINE
5
238
100
AcDbEntity
8
0
100
AcDbLine
10
-160
20
15.999999999999943
30
0
11
-160
21
25
31
0
0
LINE
5
239
100
AcDbEntity
8
0
100
AcDbLine
10
20
20
25
30
0
11
-10
21
25
31
0
0
LINE
5
240
100
AcDbEntity
8
0
100
AcDbLine
10
-40
20
25
30
0
11
-70
21
25
31
0
0
LINE
5
241
100
AcDbEntity
8
0
100
AcDbLine
10
-100
20
25
30
0
11
-130
21
25
31
0
0
LINE
5
242
100
AcDbEntity
8
0
100
AcDbLine
10
-160
20
25
30
0
11
-190
21
25
31
0
0
LINE
5
243
100
AcDbEntity
8
0
100
AcDbLine
10
-220
20
25
30
0
11
-250
21
25
31
0
0
LINE
5
244
100
AcDbEntity
8
0
100
AcDbLine
10
-234.35257017295697
20
-125
30
0
11
-204.35257017295697
21
-125
31
0
0
LINE
5
245
100
AcDbEntity
8
0
100
AcDbLine
10
-174.35257017295697
20
-125
30
0
11
-144.35257017295697
21
-125
31
0
0
LINE
5
246
100
AcDbEntity
8
0
100
AcDbLine
10
-114.35257017295697
20
-125
30
0
11
-84.352570172956973
21
-125
31
0
0
LINE
5
247
100
AcDbEntity
8
0
100
AcDbLine
10
-54.352570172956973
20
-125
30
0
11
-24.352570172956973
21
-125
31
0
0
LINE
5
248
100
AcDbEntity
8
0
100
AcDbLine
10
5.6474298270430268
20
-125
30
0
11
35.647429827043027
21
-125
31
0
0
LINE
5
249
100
AcDbEntity
8
0
100
AcDbLine
10
5.6474298270430268
20
-125
30
0
11
35.647429827043027
21
-125
31
0
0
LINE
5
250
100
AcDbEntity
8
0
100
AcDbLine
10
-54.352570172956973
20
-125
30
0
11
-24.352570172956973
21
-125
31
0
0
LINE
5
251
100
AcDbEntity
8
0
100
AcDbLine
10
-114.35257017295697
20
-125
30
0
11
-84.352570172956973
21
-125
31
0
0
LINE
5
252
100
AcDbEntity
8
0
100
AcDbLine
10
-234.35257017295697
20
-125
30
0
11
-204.35257017295697
21
-125
31
0
0
LINE
5
253
100
AcDbEntity
8
0
100
AcDbLine
10
-174.35257017295697
20
-125
30
0
11
-144.35257017295697
21
-125
31
0
0
LINE
5
254
100
AcDbEntity
8
0
100
AcDbLine
10
-246.91884172938558
20
-375
30
0
11
-216.91884172938558
21
-375
31
0
0
LINE
5
255
100
AcDbEntity
8
0
100
AcDbLine
10
-186.91884172938558
20
-375
30
0
11
-156.91884172938558
21
-375
31
0
0
LINE
5
256
100
AcDbEntity
8
0
100
AcDbLine
10
-126.91884172938558
20
-375
30
0
11
-96.918841729385576
21
-375
31
0
0
LINE
5
257
100
AcDbEntity
8
0
100
AcDbLine
10
-66.918841729385576
20
-375
30
0
11
-36.918841729385576
21
-375
31
0
0
LINE
5
258
100
AcDbEntity
8
0
100
AcDbLine
10
-6.9188417293855764
20
-375
30
0
11
23.081158270614424
21
-375
31
0
0
LINE
5
259
100
AcDbEntity
8
0
100
AcDbLine
10
50
20
-984
30
0
11
50
21
-975
31
0
0
LINE
5
260
100
AcDbEntity
8
0
100
AcDbLine
10
50
20
-975
30
0
11
100
21
-975
31
0
0
LINE
5
261
100
AcDbEntity
8
0
100
AcDbLine
10
-10
20
-975
30
0
11
20
21
-975
31
0
0
LINE
5
262
100
AcDbEntity
8
0
100
AcDbLine
10
-70
20
-975
30
0
11
-40
21
-975
31
0
0
LINE
5
263
100
AcDbEntity
8
0
100
AcDbLine
10
-190
20
-975
30
0
11
-160
21
-975
31
0
0
LINE
5
264
100
AcDbEntity
8
0
100
AcDbLine
10
-130
20
-975
30
0
11
-100
21
-975
31
0
0
LINE
5
265
100
AcDbEntity
8
0
100
AcDbLine
10
-400
20
-1025
30
0
11
150
21
-1025
31
0
0
LINE
5
266
100
AcDbEntity
8
0
100
AcDbLine
10
150
20
-1025
30
0
11
150
21
-975
31
0
0
LINE
5
267
100
AcDbEntity
8
0
100
AcDbLine
10
150
20
-975
30
0
11
100
21
-975
31
0
0
LINE
5
268
100
AcDbEntity
8
0
100
AcDbLine
10
-550
20
-1025
30
0
11
-550
21
-975
31
0
0
LINE
5
269
100
AcDbEntity
8
0
100
AcDbLine
10
-650
20
-975
30
0
11
-600
21
-975
31
0
0
LINE
5
270
100
AcDbEntity
8
0
100
AcDbLine
10
-650
20
-984
30
0
11
-650
21
-975
31
0
0
LINE
5
271
100
AcDbEntity
8
0
100
AcDbLine
10
-680
20
-984
30
0
11
-680
21
-975
31
0
0
LINE
5
272
100
AcDbEntity
8
0
100
AcDbLine
10
-650
20
-984
30
0
11
-680
21
-984
31
0
0
LINE
5
273
100
AcDbEntity
8
0
100
AcDbLine
10
-649.52064221240835
20
-684
30
0
11
-649.52064221240835
21
-725
31
0
0
LINE
5
274
100
AcDbEntity
8
0
100
AcDbLine
10
-679.52064221240835
20
-684
30
0
11
-679.52064221240835
21
-675
31
0
0
LINE
5
275
100
AcDbEntity
8
0
100
AcDbLine
10
-649.52064221240835
20
-684
30
0
11
-679.52064221240835
21
-684
31
0
0
LINE
5
276
100
AcDbEntity
8
0
100
AcDbLine
10
-889.52064221240835
20
-675
30
0
11
-859.52064221240835
21
-675
31
0
0
LINE
5
277
100
AcDbEntity
8
0
100
AcDbLine
10
-949.52064221240835
20
-675
30
0
11
-919.52064221240835
21
-675
31
0
0
LINE
5
278
100
AcDbEntity
8
0
100
AcDbLine
10
-829.52064221240835
20
-675
30
0
11
-799.52064221240835
21
-675
31
0
0
LINE
5
279
100
AcDbEntity
8
0
100
AcDbLine
10
-769.52064221240835
20
-675
30
0
11
-739.52064221240835
21
-675
31
0
0
LINE
5
280
100
AcDbEntity
8
0
100
AcDbLine
10
-709.52064221240835
20
-675
30
0
11
-679.52064221240835
21
-675
31
0
0
LINE
5
281
100
AcDbEntity
8
0
100
AcDbLine
10
-889.52064221240835
20
-684
30
0
11
-889.52064221240835
21
-675
31
0
0
LINE
5
282
100
AcDbEntity
8
0
100
AcDbLine
10
-889.52064221240835
20
-684
30
0
11
-919.52064221240835
21
-684
31
0
0
LINE
5
283
100
AcDbEntity
8
0
100
AcDbLine
10
-919.52064221240835
20
-684
30
0
11
-919.52064221240835
21
-675
31
0
0
LINE
5
284
100
AcDbEntity
8
0
100
AcDbLine
10
-829.52064221240835
20
-684
30
0
11
-829.52064221240835
21
-675
31
0
0
LINE
5
285
100
AcDbEntity
8
0
100
AcDbLine
10
-829.52064221240835
20
-684
30
0
11
-859.52064221240835
21
-684
31
0
0
LINE
5
286
100
AcDbEntity
8
0
100
AcDbLine
10
-859.52064221240835
20
-684
30
0
11
-859.52064221240835
21
-675
31
0
0
LINE
5
287
100
AcDbEntity
8
0
100
AcDbLine
10
-769.52064221240835
20
-684
30
0
11
-769.52064221240835
21
-675
31
0
0
LINE
5
288
100
AcDbEntity
8
0
100
AcDbLine
10
-769.52064221240835
20
-684
30
0
11
-799.52064221240835
21
-684
31
0
0
LINE
5
289
100
AcDbEntity
8
0
100
AcDbLine
10
-799.52064221240835
20
-684
30
0
11
-799.52064221240835
21
-675
31
0
0
LINE
5
290
100
AcDbEntity
8
0
100
AcDbLine
10
-709.52064221240835
20
-684
30
0
11
-709.52064221240835
21
-675
31
0
0
LINE
5
291
100
AcDbEntity
8
0
100
AcDbLine
10
-709.52064221240835
20
-684
30
0
11
-739.52064221240835
21
-684
31
0
0
LINE
5
292
100
AcDbEntity
8
0
100
AcDbLine
10
-739.52064221240835
20
-684
30
0
11
-739.52064221240835
21
-675
31
0
0
LINE
5
293
100
AcDbEntity
8
0
100
AcDbLine
10
-899.52064221240835
20
-725
30
0
11
-949.68627248090661
21
-725.00000003696539
31
0
0
LINE
5
294
100
AcDbEntity
8
0
100
AcDbLine
10
-649.52064221240835
20
-725
30
0
11
-899.52064221240835
21
-725
31
0
0
SPLINE
5
295
100
AcDbEntity
8
0
100
AcDbSpline
70
12
71
2
41
1
41
1.0069267374881514
41
1
72
6
73
3
74
0
42
0.000000001
43
0.0000000001
44
0.0000000001
40
0
40
0
40
0
40
25.000025983493252
40
25.000025983493252
40
25.000025983493252
10
-950
20
-975
30
0
10
-950
20
-834.31101375796868
30
0
10
-949.68627248090661
20
-725.00000003696539
30
0
0
SPLINE
5
296
100
AcDbEntity
8
0
100
AcDbSpline
70
12
71
2
41
1
41
1.0147785454680034
41
1
72
6
73
3
74
0
42
0.000000001
43
0.0000000001
44
0.0000000001
40
0
40
0
40
0
40
25.000757107547443
40
25.000757107547443
40
25.000757107547443
10
-949.52064221240835
20
-675
30
0
10
-948.95544716441509
20
-525.58816944458545
30
0
10
-947.65607564878223
20
-425
30
0
0
LINE
5
297
100
AcDbEntity
8
0
100
AcDbLine
10
-830
20
-975
30
0
11
-800
21
-975
31
0
0
LINE
5
298
100
AcDbEntity
8
0
100
AcDbLine
10
-890
20
-975
30
0
11
-860
21
-975
31
0
0
LINE
5
299
100
AcDbEntity
8
0
100
AcDbLine
10
-770
20
-975
30
0
11
-740
21
-975
31
0
0
LINE
5
300
100
AcDbEntity
8
0
100
AcDbLine
10
-710
20
-975
30
0
11
-680
21
-975
31
0
0
LINE
5
301
100
AcDbEntity
8
0
100
AcDbLine
10
-860
20
-984
30
0
11
-860
21
-975
31
0
0
LINE
5
302
100
AcDbEntity
8
0
100
AcDbLine
10
-770
20
-984
30
0
11
-770
21
-975
31
0
0
LINE
5
303
100
AcDbEntity
8
0
100
AcDbLine
10
-770
20
-984
30
0
11
-800
21
-984
31
0
0
LINE
5
304
100
AcDbEntity
8
0
100
AcDbLine
10
-800
20
-984
30
0
11
-800
21
-975
31
0
0
LINE
5
305
100
AcDbEntity
8
0
100
AcDbLine
10
-710
20
-984
30
0
11
-710
21
-975
31
0
0
LINE
5
306
100
AcDbEntity
8
0
100
AcDbLine
10
-710
20
-984
30
0
11
-740
21
-984
31
0
0
LINE
5
307
100
AcDbEntity
8
0
100
AcDbLine
10
-740
20
-984
30
0
11
-740
21
-975
31
0
0
LINE
5
308
100
AcDbEntity
8
0
100
AcDbLine
10
-890
20
-975
30
0
11
-860
21
-975
31
0
0
LINE
5
309
100
AcDbEntity
8
0
100
AcDbLine
10
-830
20
-975
30
0
11
-800
21
-975
31
0
0
LINE
5
310
100
AcDbEntity
8
0
100
AcDbLine
10
-770
20
-975
30
0
11
-740
21
-975
31
0
0
LINE
5
311
100
AcDbEntity
8
0
100
AcDbLine
10
-710
20
-975
30
0
11
-680
21
-975
31
0
0
LINE
5
312
100
AcDbEntity
8
0
100
AcDbLine
10
-830
20
-984
30
0
11
-830
21
-975
31
0
0
LINE
5
313
100
AcDbEntity
8
0
100
AcDbLine
10
-830
20
-984
30
0
11
-860
21
-984
31
0
0
LINE
5
314
100
AcDbEntity
8
0
100
AcDbLine
10
-890
20
-984
30
0
11
-890
21
-975
31
0
0
LINE
5
315
100
AcDbEntity
8
0
100
AcDbLine
10
-950
20
-975
30
0
11
-920
21
-975
31
0
0
LINE
5
316
100
AcDbEntity
8
0
100
AcDbLine
10
-890
20
-984
30
0
11
-920
21
-984
31
0
0
LINE
5
317
100
AcDbEntity
8
0
100
AcDbLine
10
-920
20
-984
30
0
11
-920
21
-975
31
0
0
LINE
5
318
100
AcDbEntity
8
0
100
AcDbLine
10
-1100
20
-975
30
0
11
-1100
21
-1025
31
0
0
LINE
5
319
100
AcDbEntity
8
0
100
AcDbLine
10
-1000
20
-975
30
0
11
-1100
21
-975
31
0
0
LINE
5
320
100
AcDbEntity
8
0
100
AcDbLine
10
-950
20
-975
30
0
11
-920
21
-975
31
0
0
LINE
5
321
100
AcDbEntity
8
0
100
AcDbLine
10
-1100
20
-1025
30
0
11
-550
21
-1025
31
0
0
LINE
5
322
100
AcDbEntity
8
0
100
AcDbLine
10
-706.91884172938558
20
-375
30
0
11
-676.91884172938558
21
-375
31
0
0
LINE
5
323
100
AcDbEntity
8
0
100
AcDbLine
10
-766.91884172938558
20
-375
30
0
11
-736.91884172938558
21
-375
31
0
0
LINE
5
324
100
AcDbEntity
8
0
100
AcDbLine
10
-826.91884172938558
20
-375
30
0
11
-796.91884172938558
21
-375
31
0
0
LINE
5
325
100
AcDbEntity
8
0
100
AcDbLine
10
-814.35257017295703
20
-125
30
0
11
-784.35257017295703
21
-125
31
0
0
LINE
5
326
100
AcDbEntity
8
0
100
AcDbLine
10
-694.35257017295703
20
-125
30
0
11
-664.35257017295703
21
-125
31
0
0
LINE
5
327
100
AcDbEntity
8
0
100
AcDbLine
10
-754.35257017295703
20
-125
30
0
11
-724.35257017295703
21
-125
31
0
0
LINE
5
328
100
AcDbEntity
8
0
100
AcDbLine
10
-754.35257017295703
20
-134.00000000000006
30
0
11
-754.35257017295703
21
-125
31
0
0
LINE
5
329
100
AcDbEntity
8
0
100
AcDbLine
10
-754.35257017295703
20
-134.00000000000006
30
0
11
-784.35257017295703
21
-134.00000000000006
31
0
0
LINE
5
330
100
AcDbEntity
8
0
100
AcDbLine
10
-784.35257017295703
20
-134.00000000000006
30
0
11
-784.35257017295703
21
-125
31
0
0
LINE
5
331
100
AcDbEntity
8
0
100
AcDbLine
10
-694.35257017295703
20
-134.00000000000006
30
0
11
-694.35257017295703
21
-125
31
0
0
LINE
5
332
100
AcDbEntity
8
0
100
AcDbLine
10
-694.35257017295703
20
-134.00000000000006
30
0
11
-724.35257017295703
21
-134.00000000000006
31
0
0
LINE
5
333
100
AcDbEntity
8
0
100
AcDbLine
10
-724.35257017295703
20
-134.00000000000006
30
0
11
-724.35257017295703
21
-125
31
0
0
LINE
5
334
100
AcDbEntity
8
0
100
AcDbLine
10
-814.35257017295703
20
-125
30
0
11
-784.35257017295703
21
-125
31
0
0
LINE
5
335
100
AcDbEntity
8
0
100
AcDbLine
10
-694.35257017295703
20
-125
30
0
11
-664.35257017295703
21
-125
31
0
0
LINE
5
336
100
AcDbEntity
8
0
100
AcDbLine
10
-814.35257017295703
20
-134.00000000000006
30
0
11
-814.35257017295703
21
-125
31
0
0
LINE
5
337
100
AcDbEntity
8
0
100
AcDbLine
10
-664.35257017295703
20
-134.00000000000006
30
0
11
-664.35257017295703
21
-125
31
0
0
LINE
5
338
100
AcDbEntity
8
0
100
AcDbLine
10
-634.35257017295703
20
-134.00000000000006
30
0
11
-664.35257017295703
21
-134.00000000000006
31
0
0
LINE
5
339
100
AcDbEntity
8
0
100
AcDbLine
10
-766.91884172938558
20
-384.00000000000006
30
0
11
-766.91884172938558
21
-375
31
0
0
LINE
5
340
100
AcDbEntity
8
0
100
AcDbLine
10
-766.91884172938558
20
-384.00000000000006
30
0
11
-796.91884172938558
21
-384.00000000000006
31
0
0
LINE
5
341
100
AcDbEntity
8
0
100
AcDbLine
10
-796.91884172938558
20
-384.00000000000006
30
0
11
-796.91884172938558
21
-375
31
0
0
LINE
5
342
100
AcDbEntity
8
0
100
AcDbLine
10
-706.91884172938558
20
-384.00000000000006
30
0
11
-706.91884172938558
21
-375
31
0
0
LINE
5
343
100
AcDbEntity
8
0
100
AcDbLine
10
-706.91884172938558
20
-384.00000000000006
30
0
11
-736.91884172938558
21
-384.00000000000006
31
0
0
LINE
5
344
100
AcDbEntity
8
0
100
AcDbLine
10
-736.91884172938558
20
-384.00000000000006
30
0
11
-736.91884172938558
21
-375
31
0
0
LINE
5
345
100
AcDbEntity
8
0
100
AcDbLine
10
-826.91884172938558
20
-375
30
0
11
-796.91884172938558
21
-375
31
0
0
LINE
5
346
100
AcDbEntity
8
0
100
AcDbLine
10
-766.91884172938558
20
-375
30
0
11
-736.91884172938558
21
-375
31
0
0
LINE
5
347
100
AcDbEntity
8
0
100
AcDbLine
10
-706.91884172938558
20
-375
30
0
11
-676.91884172938558
21
-375
31
0
0
LINE
5
348
100
AcDbEntity
8
0
100
AcDbLine
10
-676.91884172938558
20
-384.00000000000006
30
0
11
-676.91884172938558
21
-375
31
0
0
LINE
5
349
100
AcDbEntity
8
0
100
AcDbLine
10
-646.91884172938558
20
-384.00000000000006
30
0
11
-676.91884172938558
21
-384.00000000000006
31
0
0
LINE
5
350
100
AcDbEntity
8
0
100
AcDbLine
10
-646.91884172938558
20
-384.00000000000006
30
0
11
-646.91884172938558
21
-425
31
0
0
LINE
5
351
100
AcDbEntity
8
0
100
AcDbLine
10
-634.35257017295703
20
-134.00000000000006
30
0
11
-634.35257017295703
21
-175
31
0
0
LINE
5
352
100
AcDbEntity
8
0
100
AcDbLine
10
-634.35257017295703
20
-134.00000000000006
30
0
11
-634.35257017295703
21
-175
31
0
0
SPLINE
5
353
100
AcDbEntity
8
0
100
AcDbSpline
70
12
71
2
41
1
41
1.0365978212385198
41
1
72
6
73
3
74
0
42
0.000000001
43
0.0000000001
44
0.0000000001
40
0
40
0
40
0
40
20.014767213687453
40
20.014767213687453
40
20.014767213687453
10
-946.91884172938558
20
-375
30
0
10
-944.57750858358099
20
-235.51228802429426
30
0
10
-939.74574005929071
20
-175.00000135737395
30
0
0
LINE
5
354
100
AcDbEntity
8
0
100
AcDbLine
10
-886.91884172938558
20
-375
30
0
11
-856.91884172938558
21
-375
31
0
0
LINE
5
355
100
AcDbEntity
8
0
100
AcDbLine
10
-946.91884172938558
20
-375
30
0
11
-916.91884172938558
21
-375
31
0
0
LINE
5
356
100
AcDbEntity
8
0
100
AcDbLine
10
-874.35257017295703
20
-125
30
0
11
-844.35257017295703
21
-125
31
0
0
LINE
5
357
100
AcDbEntity
8
0
100
AcDbLine
10
-874.35257017295703
20
-125
30
0
11
-844.35257017295703
21
-125
31
0
0
LINE
5
358
100
AcDbEntity
8
0
100
AcDbLine
10
-844.35257017295703
20
-134.00000000000006
30
0
11
-844.35257017295703
21
-125
31
0
0
LINE
5
359
100
AcDbEntity
8
0
100
AcDbLine
10
-874.35257017295703
20
-134.00000000000006
30
0
11
-874.35257017295703
21
-125
31
0
0
LINE
5
360
100
AcDbEntity
8
0
100
AcDbLine
10
-874.35257017295703
20
-125
30
0
11
-844.35257017295703
21
-125
31
0
0
LINE
5
361
100
AcDbEntity
8
0
100
AcDbLine
10
-874.35257017295703
20
-134.00000000000006
30
0
11
-904.35257017295703
21
-134.00000000000006
31
0
0
LINE
5
362
100
AcDbEntity
8
0
100
AcDbLine
10
-904.35257017295703
20
-134.00000000000006
30
0
11
-904.35257017295703
21
-125
31
0
0
LINE
5
363
100
AcDbEntity
8
0
100
AcDbLine
10
-814.35257017295703
20
-134.00000000000006
30
0
11
-844.35257017295703
21
-134.00000000000006
31
0
0
LINE
5
364
100
AcDbEntity
8
0
100
AcDbLine
10
-856.91884172938558
20
-384.00000000000006
30
0
11
-856.91884172938558
21
-375
31
0
0
LINE
5
365
100
AcDbEntity
8
0
100
AcDbLine
10
-886.91884172938558
20
-384.00000000000006
30
0
11
-886.91884172938558
21
-375
31
0
0
LINE
5
366
100
AcDbEntity
8
0
100
AcDbLine
10
-886.91884172938558
20
-375
30
0
11
-856.91884172938558
21
-375
31
0
0
LINE
5
367
100
AcDbEntity
8
0
100
AcDbLine
10
-946.91884172938558
20
-375
30
0
11
-916.91884172938558
21
-375
31
0
0
LINE
5
368
100
AcDbEntity
8
0
100
AcDbLine
10
-886.91884172938558
20
-384.00000000000006
30
0
11
-916.91884172938558
21
-384.00000000000006
31
0
0
LINE
5
369
100
AcDbEntity
8
0
100
AcDbLine
10
-916.91884172938558
20
-384.00000000000006
30
0
11
-916.91884172938558
21
-375
31
0
0
LINE
5
370
100
AcDbEntity
8
0
100
AcDbLine
10
-826.91884172938558
20
-384.00000000000006
30
0
11
-826.91884172938558
21
-375
31
0
0
LINE
5
371
100
AcDbEntity
8
0
100
AcDbLine
10
-826.91884172938558
20
-384.00000000000006
30
0
11
-856.91884172938558
21
-384.00000000000006
31
0
0
LINE
5
372
100
AcDbEntity
8
0
100
AcDbLine
10
-896.91884172938558
20
-425
30
0
11
-947.65607564878223
21
-425
31
0
0
LINE
5
373
100
AcDbEntity
8
0
100
AcDbLine
10
-884.35257017295703
20
-175
30
0
11
-939.74574005929071
21
-175.00000135737395
31
0
0
LINE
5
374
100
AcDbEntity
8
0
100
AcDbLine
10
-634.35257017295703
20
-175
30
0
11
-884.35257017295703
21
-175
31
0
0
LINE
5
375
100
AcDbEntity
8
0
100
AcDbLine
10
-634.35257017295703
20
-175
30
0
11
-884.35257017295703
21
-175
31
0
0
LINE
5
376
100
AcDbEntity
8
0
100
AcDbLine
10
-646.91884172938558
20
-425
30
0
11
-896.91884172938558
21
-425
31
0
0
LINE
5
377
100
AcDbEntity
8
0
100
AcDbLine
10
-650
20
15.999999999999943
30
0
11
-650
21
-25
31
0
0
LINE
5
378
100
AcDbEntity
8
0
100
AcDbLine
10
-650
20
-25
30
0
11
-900
21
-25
31
0
0
LINE
5
379
100
AcDbEntity
8
0
100
AcDbLine
10
-754.35257017295703
20
-125
30
0
11
-724.35257017295703
21
-125
31
0
0
LINE
5
380
100
AcDbEntity
8
0
100
AcDbLine
10
-934.35257017295703
20
-125
30
0
11
-904.35257017295703
21
-125
31
0
0
LINE
5
381
100
AcDbEntity
8
0
100
AcDbLine
10
-650
20
15.999999999999943
30
0
11
-680
21
15.999999999999943
31
0
0
LINE
5
382
100
AcDbEntity
8
0
100
AcDbLine
10
-680
20
15.999999999999943
30
0
11
-680
21
25
31
0
0
LINE
5
383
100
AcDbEntity
8
0
100
AcDbLine
10
-830
20
15.999999999999943
30
0
11
-860
21
15.999999999999943
31
0
0
LINE
5
384
100
AcDbEntity
8
0
100
AcDbLine
10
-830
20
15.999999999999943
30
0
11
-830
21
25
31
0
0
LINE
5
385
100
AcDbEntity
8
0
100
AcDbLine
10
-920
20
15.999999999999943
30
0
11
-920
21
25
31
0
0
LINE
5
386
100
AcDbEntity
8
0
100
AcDbLine
10
-890
20
15.999999999999943
30
0
11
-920
21
15.999999999999943
31
0
0
LINE
5
387
100
AcDbEntity
8
0
100
AcDbLine
10
-710
20
25
30
0
11
-680
21
25
31
0
0
LINE
5
388
100
AcDbEntity
8
0
100
AcDbLine
10
-770
20
25
30
0
11
-740
21
25
31
0
0
LINE
5
389
100
AcDbEntity
8
0
100
AcDbLine
10
-830
20
25
30
0
11
-800
21
25
31
0
0
LINE
5
390
100
AcDbEntity
8
0
100
AcDbLine
10
-950
20
25
30
0
11
-920
21
25
31
0
0
LINE
5
391
100
AcDbEntity
8
0
100
AcDbLine
10
-890
20
25
30
0
11
-860
21
25
31
0
0
LINE
5
392
100
AcDbEntity
8
0
100
AcDbLine
10
-890
20
15.999999999999943
30
0
11
-890
21
25
31
0
0
LINE
5
393
100
AcDbEntity
8
0
100
AcDbLine
10
-740
20
15.999999999999943
30
0
11
-740
21
25
31
0
0
LINE
5
394
100
AcDbEntity
8
0
100
AcDbLine
10
-710
20
15.999999999999943
30
0
11
-740
21
15.999999999999943
31
0
0
LINE
5
395
100
AcDbEntity
8
0
100
AcDbLine
10
-710
20
15.999999999999943
30
0
11
-710
21
25
31
0
0
LINE
5
396
100
AcDbEntity
8
0
100
AcDbLine
10
-800
20
15.999999999999943
30
0
11
-800
21
25
31
0
0
LINE
5
397
100
AcDbEntity
8
0
100
AcDbLine
10
-770
20
15.999999999999943
30
0
11
-800
21
15.999999999999943
31
0
0
LINE
5
398
100
AcDbEntity
8
0
100
AcDbLine
10
-770
20
15.999999999999943
30
0
11
-770
21
25
31
0
0
LINE
5
399
100
AcDbEntity
8
0
100
AcDbLine
10
-860
20
15.999999999999943
30
0
11
-860
21
25
31
0
0
LINE
5
400
100
AcDbEntity
8
0
100
AcDbLine
10
-680
20
25
30
0
11
-710
21
25
31
0
0
LINE
5
401
100
AcDbEntity
8
0
100
AcDbLine
10
-740
20
25
30
0
11
-770
21
25
31
0
0
LINE
5
402
100
AcDbEntity
8
0
100
AcDbLine
10
-800
20
25
30
0
11
-830
21
25
31
0
0
LINE
5
403
100
AcDbEntity
8
0
100
AcDbLine
10
-860
20
25
30
0
11
-890
21
25
31
0
0
LINE
5
404
100
AcDbEntity
8
0
100
AcDbLine
10
-920
20
25
30
0
11
-950
21
25
31
0
0
LINE
5
405
100
AcDbEntity
8
0
100
AcDbLine
10
-934.35257017295703
20
-125
30
0
11
-904.35257017295703
21
-125
31
0
0
LINE
5
406
100
AcDbEntity
8
0
100
AcDbLine
10
-814.35257017295703
20
-125
30
0
11
-784.35257017295703
21
-125
31
0
0
LINE
5
407
100
AcDbEntity
8
0
100
AcDbLine
10
-694.35257017295703
20
-125
30
0
11
-664.35257017295703
21
-125
31
0
0
LINE
5
408
100
AcDbEntity
8
0
100
AcDbLine
10
-754.35257017295703
20
-125
30
0
11
-724.35257017295703
21
-125
31
0
0
LINE
5
409
100
AcDbEntity
8
0
100
AcDbLine
10
-934.35257017295703
20
-125
30
0
11
-904.35257017295703
21
-125
31
0
0
SPLINE
5
410
100
AcDbEntity
8
0
100
AcDbSpline
70
12
71
2
41
1
41
1.1216092185303304
41
1
72
6
73
3
74
0
42
0.000000001
43
0.0000000001
44
0.0000000001
40
0
40
0
40
0
40
10.651506992901375
40
10.651506992901375
40
10.651506992901375
10
-934.35257017295703
20
-125
30
0
10
-925.06180948838869
20
-60.740745094693708
30
0
10
-900
20
-25
30
0
0
SPLINE
5
411
100
AcDbEntity
8
0
100
AcDbSpline
70
12
71
2
41
1
41
2.333333333333329
41
1
72
6
73
3
74
0
42
0.000000001
43
0.0000000001
44
0.0000000001
40
0
40
0
40
0
40
100.38095516826954
40
100.38095516826954
40
100.38095516826954
10
-950
20
25
30
0
10
-1000
20
-100
30
0
10
-1000
20
-975
30
0
0
LINE
5
412
100
AcDbEntity
8
0
100
AcDbLine
10
-550
20
-975
30
0
11
-600
21
-975
31
0
0
LINE
5
413
100
AcDbEntity
8
0
100
AcDbLine
10
750
20
-975
30
0
11
550
21
-975
31
0
0
LINE
5
414
100
AcDbEntity
8
0
100
AcDbLine
10
750
20
-984
30
0
11
600
21
-984
31
0
0
LINE
5
415
100
AcDbEntity
8
0
100
AcDbLine
10
750
20
-975
30
0
11
750
21
-945
31
0
0
LINE
5
416
100
AcDbEntity
8
0
100
AcDbLine
10
750
20
-945
30
0
11
400.00361273853355
21
-945
31
0
0
LINE
5
417
100
AcDbEntity
8
0
100
AcDbLine
10
550
20
-975
30
0
11
550
21
-984
31
0
0
LINE
5
418
100
AcDbEntity
8
0
100
AcDbLine
10
550
20
-984
30
0
11
600
21
-984
31
0
0
SPLINE
5
419
100
AcDbEntity
8
0
100
AcDbSpline
70
12
71
2
41
1
41
1.0055155588374947
41
1
72
6
73
3
74
0
42
0.000000001
43
0.0000000001
44
0.0000000001
40
0
40
0
40
0
40
22.000026515407619
40
22.000026515407619
40
22.000026515407619
10
400.00361273853355
20
-945
30
0
10
400.03348156720153
20
-822.64514503742544
30
0
10
400.31372751909345
20
-725.00000003696539
30
0
0
LINE
5
420
100
AcDbEntity
8
0
100
AcDbLine
10
700.47935778759165
20
-684
30
0
11
550.47935778759165
21
-684
31
0
0
LINE
5
421
100
AcDbEntity
8
0
100
AcDbLine
10
550.47935778759165
20
-684
30
0
11
550.47935778759165
21
-675
31
0
0
LINE
5
422
100
AcDbEntity
8
0
100
AcDbLine
10
700.47935778759165
20
-675
30
0
11
700.47935778759165
21
-645
31
0
0
LINE
5
423
100
AcDbEntity
8
0
100
AcDbLine
10
700.47935778759165
20
-645
30
0
11
400.60218776394947
21
-645
31
0
0
SPLINE
5
424
100
AcDbEntity
8
0
100
AcDbSpline
70
12
71
2
41
1
41
1.0119292679011624
41
1
72
6
73
3
74
0
42
0.000000001
43
0.0000000001
44
0.0000000001
40
0
40
0
40
0
40
22.000736994115318
40
22.000736994115318
40
22.000736994115318
10
400.60218776394947
20
-645
30
0
10
401.17405272720652
20
-515.56320207785177
30
0
10
402.34392435121771
20
-425
30
0
0
LINE
5
425
100
AcDbEntity
8
0
100
AcDbLine
10
703.08115827061442
20
-384.00000000000006
30
0
11
553.08115827061442
21
-384.00000000000006
31
0
0
LINE
5
426
100
AcDbEntity
8
0
100
AcDbLine
10
553.08115827061442
20
-384.00000000000006
30
0
11
553.08115827061442
21
-375
31
0
0
LINE
5
427
100
AcDbEntity
8
0
100
AcDbLine
10
703.08115827061442
20
-375
30
0
11
703.08115827061442
21
-345
31
0
0
LINE
5
428
100
AcDbEntity
8
0
100
AcDbLine
10
553.08115827061442
20
-375
30
0
11
703.08115827061442
21
-375
31
0
0
LINE
5
429
100
AcDbEntity
8
0
100
AcDbLine
10
703.08115827061442
20
-345
30
0
11
403.62897416076294
21
-345
31
0
0
SPLINE
5
430
100
AcDbEntity
8
0
100
AcDbSpline
70
12
71
2
41
1
41
1.029018760837983
41
1
72
6
73
3
74
0
42
0.000000001
43
0.0000000001
44
0.0000000001
40
0
40
0
40
0
40
17.014437199742581
40
17.014437199742581
40
17.014437199742581
10
403.62897416076294
20
-345
30
0
10
405.92817214462457
20
-229.17922446107161
30
0
10
410.25425994070929
20
-175.00000135737395
30
0
0
LINE
5
431
100
AcDbEntity
8
0
100
AcDbLine
10
715.64742982704297
20
-134.00000000000006
30
0
11
565.64742982704297
21
-134.00000000000006
31
0
0
LINE
5
432
100
AcDbEntity
8
0
100
AcDbLine
10
565.64742982704297
20
-134.00000000000006
30
0
11
565.64742982704297
21
-125
31
0
0
LINE
5
433
100
AcDbEntity
8
0
100
AcDbLine
10
715.64742982704297
20
-125
30
0
11
715.64742982704297
21
-95
31
0
0
LINE
5
434
100
AcDbEntity
8
0
100
AcDbLine
10
565.64742982704297
20
-125
30
0
11
715.64742982704297
21
-125
31
0
0
LINE
5
435
100
AcDbEntity
8
0
100
AcDbLine
10
715.64742982704297
20
-95
30
0
11
421.02833801074485
21
-95
31
0
0
SPLINE
5
436
100
AcDbEntity
8
0
100
AcDbSpline
70
12
71
2
41
1
41
1.0700845046321708
41
1
72
6
73
3
74
0
42
0.000000001
43
0.0000000001
44
0.0000000001
40
0
40
0
40
0
40
7.6151305711212842
40
7.6151305711212842
40
7.6151305711212842
10
421.02833801074485
20
-95
30
0
10
430.30186645763411
20
-53.091585729478737
30
0
10
450
20
-25
30
0
0
LINE
5
437
100
AcDbEntity
8
0
100
AcDbLine
10
700
20
15.999999999999943
30
0
11
550
21
15.999999999999943
31
0
0
LINE
5
438
100
AcDbEntity
8
0
100
AcDbLine
10
550
20
15.999999999999943
30
0
11
550
21
25
31
0
0
LINE
5
439
100
AcDbEntity
8
0
100
AcDbLine
10
700
20
25
30
0
11
700
21
55
31
0
0
LINE
5
440
100
AcDbEntity
8
0
100
AcDbLine
10
550
20
25
30
0
11
700
21
25
31
0
0
LINE
5
441
100
AcDbEntity
8
0
100
AcDbLine
10
700
20
55
30
0
11
400.12282997635782
21
55
31
0
0
LINE
5
442
100
AcDbEntity
8
0
100
AcDbLine
10
400.12282997635782
20
55
30
0
11
400
21
25
31
0
0
LINE
5
443
100
AcDbEntity
8
0
100
AcDbLine
10
-700
20
-1200
30
0
11
-700
21
-1700
31
0
0
LINE
5
444
100
AcDbEntity
8
0
100
AcDbLine
10
-700
20
-1200
30
0
11
-700
21
-1191
31
0
0
LINE
5
445
100
AcDbEntity
8
0
100
AcDbLine
10
-700
20
-1191
30
0
11
-730
21
-1191
31
0
0
LINE
5
446
100
AcDbEntity
8
0
100
AcDbLine
10
-730
20
-1191
30
0
11
-730
21
-1200
31
0
0
LINE
5
447
100
AcDbEntity
8
0
100
AcDbLine
10
-790
20
-1191
30
0
11
-790
21
-1200
31
0
0
LINE
5
448
100
AcDbEntity
8
0
100
AcDbLine
10
-760
20
-1191
30
0
11
-790
21
-1191
31
0
0
LINE
5
449
100
AcDbEntity
8
0
100
AcDbLine
10
-760
20
-1200
30
0
11
-760
21
-1191
31
0
0
LINE
5
450
100
AcDbEntity
8
0
100
AcDbLine
10
-850
20
-1191
30
0
11
-850
21
-1200
31
0
0
LINE
5
451
100
AcDbEntity
8
0
100
AcDbLine
10
-820
20
-1191
30
0
11
-850
21
-1191
31
0
0
LINE
5
452
100
AcDbEntity
8
0
100
AcDbLine
10
-820
20
-1200
30
0
11
-820
21
-1191
31
0
0
LINE
5
453
100
AcDbEntity
8
0
100
AcDbLine
10
-910
20
-1191
30
0
11
-910
21
-1200
31
0
0
LINE
5
454
100
AcDbEntity
8
0
100
AcDbLine
10
-880
20
-1191
30
0
11
-910
21
-1191
31
0
0
LINE
5
455
100
AcDbEntity
8
0
100
AcDbLine
10
-880
20
-1200
30
0
11
-880
21
-1191
31
0
0
LINE
5
456
100
AcDbEntity
8
0
100
AcDbLine
10
-970
20
-1191
30
0
11
-970
21
-1200
31
0
0
LINE
5
457
100
AcDbEntity
8
0
100
AcDbLine
10
-940
20
-1191
30
0
11
-970
21
-1191
31
0
0
LINE
5
458
100
AcDbEntity
8
0
100
AcDbLine
10
-940
20
-1200
30
0
11
-940
21
-1191
31
0
0
LINE
5
459
100
AcDbEntity
8
0
100
AcDbLine
10
-1000
20
-1200
30
0
11
-970
21
-1200
31
0
0
LINE
5
460
100
AcDbEntity
8
0
100
AcDbLine
10
-940
20
-1200
30
0
11
-910
21
-1200
31
0
0
LINE
5
461
100
AcDbEntity
8
0
100
AcDbLine
10
-880
20
-1200
30
0
11
-850
21
-1200
31
0
0
LINE
5
462
100
AcDbEntity
8
0
100
AcDbLine
10
-820
20
-1200
30
0
11
-790
21
-1200
31
0
0
LINE
5
463
100
AcDbEntity
8
0
100
AcDbLine
10
-760
20
-1200
30
0
11
-730
21
-1200
31
0
0
LINE
5
464
100
AcDbEntity
8
0
100
AcDbLine
10
-880
20
-1700
30
0
11
-850
21
-1700
31
0
0
LINE
5
465
100
AcDbEntity
8
0
100
AcDbLine
10
-850
20
-1709
30
0
11
-850
21
-1700
31
0
0
LINE
5
466
100
AcDbEntity
8
0
100
AcDbLine
10
-820
20
-1709
30
0
11
-850
21
-1709
31
0
0
LINE
5
467
100
AcDbEntity
8
0
100
AcDbLine
10
-820
20
-1700
30
0
11
-820
21
-1709
31
0
0
LINE
5
468
100
AcDbEntity
8
0
100
AcDbLine
10
-910
20
-1709
30
0
11
-910
21
-1700
31
0
0
LINE
5
469
100
AcDbEntity
8
0
100
AcDbLine
10
-880
20
-1709
30
0
11
-910
21
-1709
31
0
0
LINE
5
470
100
AcDbEntity
8
0
100
AcDbLine
10
-880
20
-1700
30
0
11
-880
21
-1709
31
0
0
LINE
5
471
100
AcDbEntity
8
0
100
AcDbLine
10
-940
20
-1700
30
0
11
-940
21
-1709
31
0
0
LINE
5
472
100
AcDbEntity
8
0
100
AcDbLine
10
-760
20
-1700
30
0
11
-730
21
-1700
31
0
0
LINE
5
473
100
AcDbEntity
8
0
100
AcDbLine
10
-970
20
-1709
30
0
11
-970
21
-1700
31
0
0
LINE
5
474
100
AcDbEntity
8
0
100
AcDbLine
10
-940
20
-1709
30
0
11
-970
21
-1709
31
0
0
LINE
5
475
100
AcDbEntity
8
0
100
AcDbLine
10
-1000
20
-1700
30
0
11
-970
21
-1700
31
0
0
LINE
5
476
100
AcDbEntity
8
0
100
AcDbLine
10
-730
20
-1709
30
0
11
-730
21
-1700
31
0
0
LINE
5
477
100
AcDbEntity
8
0
100
AcDbLine
10
-700
20
-1709
30
0
11
-730
21
-1709
31
0
0
LINE
5
478
100
AcDbEntity
8
0
100
AcDbLine
10
-700
20
-1700
30
0
11
-700
21
-1709
31
0
0
LINE
5
479
100
AcDbEntity
8
0
100
AcDbLine
10
-940
20
-1700
30
0
11
-910
21
-1700
31
0
0
LINE
5
480
100
AcDbEntity
8
0
100
AcDbLine
10
-820
20
-1700
30
0
11
-790
21
-1700
31
0
0
LINE
5
481
100
AcDbEntity
8
0
100
AcDbLine
10
-790
20
-1709
30
0
11
-790
21
-1700
31
0
0
LINE
5
482
100
AcDbEntity
8
0
100
AcDbLine
10
-760
20
-1709
30
0
11
-790
21
-1709
31
0
0
LINE
5
483
100
AcDbEntity
8
0
100
AcDbLine
10
-760
20
-1700
30
0
11
-760
21
-1709
31
0
0
LINE
5
484
100
AcDbEntity
8
0
100
AcDbLine
10
-730
20
-1700
30
0
11
-760
21
-1700
31
0
0
LINE
5
485
100
AcDbEntity
8
0
100
AcDbLine
10
-790
20
-1700
30
0
11
-820
21
-1700
31
0
0
LINE
5
486
100
AcDbEntity
8
0
100
AcDbLine
10
-850
20
-1700
30
0
11
-880
21
-1700
31
0
0
LINE
5
487
100
AcDbEntity
8
0
100
AcDbLine
10
-910
20
-1700
30
0
11
-940
21
-1700
31
0
0
LINE
5
488
100
AcDbEntity
8
0
100
AcDbLine
10
-970
20
-1700
30
0
11
-1000
21
-1700
31
0
0
LINE
5
489
100
AcDbEntity
8
0
100
AcDbLine
10
-1000
20
-1445.5
30
0
11
-850
21
-1445.5
31
0
0
LINE
5
490
100
AcDbEntity
8
0
100
AcDbLine
10
-850
20
-1445.5
30
0
11
-850
21
-1454.5000000000002
31
0
0
LINE
5
491
100
AcDbEntity
8
0
100
AcDbLine
10
-850
20
-1454.5000000000002
30
0
11
-1000
21
-1454.5000000000002
31
0
0
LINE
5
492
100
AcDbEntity
8
0
100
AcDbLine
10
-1000
20
-1700
30
0
11
-1000
21
-1454.5000000000002
31
0
0
LINE
5
493
100
AcDbEntity
8
0
100
AcDbLine
10
-1000
20
-1445.5
30
0
11
-1000
21
-1200
31
0
0
LINE
5
494
100
AcDbEntity
8
0
100
AcDbLine
10
-420
20
-1200
30
0
11
-390
21
-1200
31
0
0
LINE
5
495
100
AcDbEntity
8
0
100
AcDbLine
10
-360
20
-1200
30
0
11
-330
21
-1200
31
0
0
LINE
5
496
100
AcDbEntity
8
0
100
AcDbLine
10
-540
20
-1709
30
0
11
-570
21
-1709
31
0
0
LINE
5
497
100
AcDbEntity
8
0
100
AcDbLine
10
-570
20
-1709
30
0
11
-570
21
-1700
31
0
0
LINE
5
498
100
AcDbEntity
8
0
100
AcDbLine
10
-360
20
-1700
30
0
11
-330
21
-1700
31
0
0
LINE
5
499
100
AcDbEntity
8
0
100
AcDbLine
10
-540
20
-1700
30
0
11
-540
21
-1709
31
0
0
LINE
5
500
100
AcDbEntity
8
0
100
AcDbLine
10
-480
20
-1700
30
0
11
-480
21
-1709
31
0
0
LINE
5
501
100
AcDbEntity
8
0
100
AcDbLine
10
-480
20
-1709
30
0
11
-510
21
-1709
31
0
0
LINE
5
502
100
AcDbEntity
8
0
100
AcDbLine
10
-510
20
-1709
30
0
11
-510
21
-1700
31
0
0
LINE
5
503
100
AcDbEntity
8
0
100
AcDbLine
10
-420
20
-1700
30
0
11
-420
21
-1709
31
0
0
LINE
5
504
100
AcDbEntity
8
0
100
AcDbLine
10
-420
20
-1709
30
0
11
-450
21
-1709
31
0
0
LINE
5
505
100
AcDbEntity
8
0
100
AcDbLine
10
-450
20
-1709
30
0
11
-450
21
-1700
31
0
0
LINE
5
506
100
AcDbEntity
8
0
100
AcDbLine
10
-480
20
-1700
30
0
11
-450
21
-1700
31
0
0
LINE
5
507
100
AcDbEntity
8
0
100
AcDbLine
10
-600
20
-1700
30
0
11
-600
21
-1454.5000000000002
31
0
0
LINE
5
508
100
AcDbEntity
8
0
100
AcDbLine
10
-390
20
-1191
30
0
11
-390
21
-1200
31
0
0
LINE
5
509
100
AcDbEntity
8
0
100
AcDbLine
10
-360
20
-1191
30
0
11
-390
21
-1191
31
0
0
LINE
5
510
100
AcDbEntity
8
0
100
AcDbLine
10
-360
20
-1200
30
0
11
-360
21
-1191
31
0
0
LINE
5
511
100
AcDbEntity
8
0
100
AcDbLine
10
-450
20
-1191
30
0
11
-450
21
-1200
31
0
0
LINE
5
512
100
AcDbEntity
8
0
100
AcDbLine
10
-420
20
-1191
30
0
11
-450
21
-1191
31
0
0
LINE
5
513
100
AcDbEntity
8
0
100
AcDbLine
10
-420
20
-1200
30
0
11
-420
21
-1191
31
0
0
LINE
5
514
100
AcDbEntity
8
0
100
AcDbLine
10
-510
20
-1191
30
0
11
-510
21
-1200
31
0
0
LINE
5
515
100
AcDbEntity
8
0
100
AcDbLine
10
-480
20
-1191
30
0
11
-510
21
-1191
31
0
0
LINE
5
516
100
AcDbEntity
8
0
100
AcDbLine
10
-480
20
-1200
30
0
11
-480
21
-1191
31
0
0
LINE
5
517
100
AcDbEntity
8
0
100
AcDbLine
10
-570
20
-1191
30
0
11
-570
21
-1200
31
0
0
LINE
5
518
100
AcDbEntity
8
0
100
AcDbLine
10
-540
20
-1191
30
0
11
-570
21
-1191
31
0
0
LINE
5
519
100
AcDbEntity
8
0
100
AcDbLine
10
-540
20
-1200
30
0
11
-540
21
-1191
31
0
0
LINE
5
520
100
AcDbEntity
8
0
100
AcDbLine
10
-600
20
-1200
30
0
11
-570
21
-1200
31
0
0
LINE
5
521
100
AcDbEntity
8
0
100
AcDbLine
10
-540
20
-1200
30
0
11
-510
21
-1200
31
0
0
LINE
5
522
100
AcDbEntity
8
0
100
AcDbLine
10
-480
20
-1200
30
0
11
-450
21
-1200
31
0
0
LINE
5
523
100
AcDbEntity
8
0
100
AcDbLine
10
-600
20
-1445.5
30
0
11
-600
21
-1200
31
0
0
LINE
5
524
100
AcDbEntity
8
0
100
AcDbLine
10
-330
20
-1191
30
0
11
-330
21
-1200
31
0
0
LINE
5
525
100
AcDbEntity
8
0
100
AcDbLine
10
-300
20
-1191
30
0
11
-330
21
-1191
31
0
0
LINE
5
526
100
AcDbEntity
8
0
100
AcDbLine
10
-300
20
-1200
30
0
11
-300
21
-1191
31
0
0
LINE
5
527
100
AcDbEntity
8
0
100
AcDbLine
10
-300
20
-1200
30
0
11
-300
21
-1700
31
0
0
LINE
5
528
100
AcDbEntity
8
0
100
AcDbLine
10
-420
20
-1700
30
0
11
-390
21
-1700
31
0
0
LINE
5
529
100
AcDbEntity
8
0
100
AcDbLine
10
-300
20
-1700
30
0
11
-300
21
-1709
31
0
0
LINE
5
530
100
AcDbEntity
8
0
100
AcDbLine
10
-300
20
-1709
30
0
11
-330
21
-1709
31
0
0
LINE
5
531
100
AcDbEntity
8
0
100
AcDbLine
10
-330
20
-1709
30
0
11
-330
21
-1700
31
0
0
LINE
5
532
100
AcDbEntity
8
0
100
AcDbLine
10
-600
20
-1700
30
0
11
-570
21
-1700
31
0
0
LINE
5
533
100
AcDbEntity
8
0
100
AcDbLine
10
-450
20
-1454.5000000000002
30
0
11
-600
21
-1454.5000000000002
31
0
0
LINE
5
534
100
AcDbEntity
8
0
100
AcDbLine
10
-450
20
-1445.5
30
0
11
-450
21
-1454.5000000000002
31
0
0
LINE
5
535
100
AcDbEntity
8
0
100
AcDbLine
10
-600
20
-1445.5
30
0
11
-450
21
-1445.5
31
0
0
LINE
5
536
100
AcDbEntity
8
0
100
AcDbLine
10
-570
20
-1700
30
0
11
-600
21
-1700
31
0
0
LINE
5
537
100
AcDbEntity
8
0
100
AcDbLine
10
-450
20
-1700
30
0
11
-480
21
-1700
31
0
0
LINE
5
538
100
AcDbEntity
8
0
100
AcDbLine
10
-330
20
-1700
30
0
11
-360
21
-1700
31
0
0
LINE
5
539
100
AcDbEntity
8
0
100
AcDbLine
10
-540
20
-1700
30
0
11
-510
21
-1700
31
0
0
LINE
5
540
100
AcDbEntity
8
0
100
AcDbLine
10
-510
20
-1700
30
0
11
-540
21
-1700
31
0
0
LINE
5
541
100
AcDbEntity
8
0
100
AcDbLine
10
-390
20
-1700
30
0
11
-420
21
-1700
31
0
0
LINE
5
542
100
AcDbEntity
8
0
100
AcDbLine
10
-360
20
-1700
30
0
11
-360
21
-1709
31
0
0
LINE
5
543
100
AcDbEntity
8
0
100
AcDbLine
10
-360
20
-1709
30
0
11
-390
21
-1709
31
0
0
LINE
5
544
100
AcDbEntity
8
0
100
AcDbLine
10
-390
20
-1709
30
0
11
-390
21
-1700
31
0
0
LINE
5
545
100
AcDbEntity
8
0
100
AcDbLine
10
-820
20
-1800
30
0
11
-790
21
-1800
31
0
0
LINE
5
546
100
AcDbEntity
8
0
100
AcDbLine
10
-760
20
-1800
30
0
11
-730
21
-1800
31
0
0
LINE
5
547
100
AcDbEntity
8
0
100
AcDbLine
10
-940
20
-2309
30
0
11
-970
21
-2309
31
0
0
LINE
5
548
100
AcDbEntity
8
0
100
AcDbLine
10
-970
20
-2309
30
0
11
-970
21
-2300
31
0
0
LINE
5
549
100
AcDbEntity
8
0
100
AcDbLine
10
-760
20
-2300
30
0
11
-730
21
-2300
31
0
0
LINE
5
550
100
AcDbEntity
8
0
100
AcDbLine
10
-940
20
-2300
30
0
11
-940
21
-2309
31
0
0
LINE
5
551
100
AcDbEntity
8
0
100
AcDbLine
10
-880
20
-2300
30
0
11
-880
21
-2309
31
0
0
LINE
5
552
100
AcDbEntity
8
0
100
AcDbLine
10
-880
20
-2309
30
0
11
-910
21
-2309
31
0
0
LINE
5
553
100
AcDbEntity
8
0
100
AcDbLine
10
-910
20
-2309
30
0
11
-910
21
-2300
31
0
0
LINE
5
554
100
AcDbEntity
8
0
100
AcDbLine
10
-820
20
-2300
30
0
11
-820
21
-2309
31
0
0
LINE
5
555
100
AcDbEntity
8
0
100
AcDbLine
10
-820
20
-2309
30
0
11
-850
21
-2309
31
0
0
LINE
5
556
100
AcDbEntity
8
0
100
AcDbLine
10
-850
20
-2309
30
0
11
-850
21
-2300
31
0
0
LINE
5
557
100
AcDbEntity
8
0
100
AcDbLine
10
-880
20
-2300
30
0
11
-850
21
-2300
31
0
0
LINE
5
558
100
AcDbEntity
8
0
100
AcDbLine
10
-1000
20
-2300
30
0
11
-1000
21
-2054.5
31
0
0
LINE
5
559
100
AcDbEntity
8
0
100
AcDbLine
10
-790
20
-1791
30
0
11
-790
21
-1800
31
0
0
LINE
5
560
100
AcDbEntity
8
0
100
AcDbLine
10
-760
20
-1791
30
0
11
-790
21
-1791
31
0
0
LINE
5
561
100
AcDbEntity
8
0
100
AcDbLine
10
-760
20
-1800
30
0
11
-760
21
-1791
31
0
0
LINE
5
562
100
AcDbEntity
8
0
100
AcDbLine
10
-850
20
-1791
30
0
11
-850
21
-1800
31
0
0
LINE
5
563
100
AcDbEntity
8
0
100
AcDbLine
10
-820
20
-1791
30
0
11
-850
21
-1791
31
0
0
LINE
5
564
100
AcDbEntity
8
0
100
AcDbLine
10
-820
20
-1800
30
0
11
-820
21
-1791
31
0
0
LINE
5
565
100
AcDbEntity
8
0
100
AcDbLine
10
-910
20
-1791
30
0
11
-910
21
-1800
31
0
0
LINE
5
566
100
AcDbEntity
8
0
100
AcDbLine
10
-880
20
-1791
30
0
11
-910
21
-1791
31
0
0
LINE
5
567
100
AcDbEntity
8
0
100
AcDbLine
10
-880
20
-1800
30
0
11
-880
21
-1791
31
0
0
LINE
5
568
100
AcDbEntity
8
0
100
AcDbLine
10
-970
20
-1791
30
0
11
-970
21
-1800
31
0
0
LINE
5
569
100
AcDbEntity
8
0
100
AcDbLine
10
-940
20
-1791
30
0
11
-970
21
-1791
31
0
0
LINE
5
570
100
AcDbEntity
8
0
100
AcDbLine
10
-940
20
-1800
30
0
11
-940
21
-1791
31
0
0
LINE
5
571
100
AcDbEntity
8
0
100
AcDbLine
10
-1000
20
-1800
30
0
11
-970
21
-1800
31
0
0
LINE
5
572
100
AcDbEntity
8
0
100
AcDbLine
10
-940
20
-1800
30
0
11
-910
21
-1800
31
0
0
LINE
5
573
100
AcDbEntity
8
0
100
AcDbLine
10
-880
20
-1800
30
0
11
-850
21
-1800
31
0
0
LINE
5
574
100
AcDbEntity
8
0
100
AcDbLine
10
-1000
20
-2045.5
30
0
11
-1000
21
-1800
31
0
0
LINE
5
575
100
AcDbEntity
8
0
100
AcDbLine
10
-730
20
-1791
30
0
11
-730
21
-1800
31
0
0
LINE
5
576
100
AcDbEntity
8
0
100
AcDbLine
10
-700
20
-1791
30
0
11
-730
21
-1791
31
0
0
LINE
5
577
100
AcDbEntity
8
0
100
AcDbLine
10
-700
20
-1800
30
0
11
-700
21
-1791
31
0
0
LINE
5
578
100
AcDbEntity
8
0
100
AcDbLine
10
-700
20
-1800
30
0
11
-700
21
-2300
31
0
0
LINE
5
579
100
AcDbEntity
8
0
100
AcDbLine
10
-820
20
-2300
30
0
11
-790
21
-2300
31
0
0
LINE
5
580
100
AcDbEntity
8
0
100
AcDbLine
10
-700
20
-2300
30
0
11
-700
21
-2309
31
0
0
LINE
5
581
100
AcDbEntity
8
0
100
AcDbLine
10
-700
20
-2309
30
0
11
-730
21
-2309
31
0
0
LINE
5
582
100
AcDbEntity
8
0
100
AcDbLine
10
-730
20
-2309
30
0
11
-730
21
-2300
31
0
0
LINE
5
583
100
AcDbEntity
8
0
100
AcDbLine
10
-1000
20
-2300
30
0
11
-970
21
-2300
31
0
0
LINE
5
584
100
AcDbEntity
8
0
100
AcDbLine
10
-850
20
-2054.5
30
0
11
-1000
21
-2054.5
31
0
0
LINE
5
585
100
AcDbEntity
8
0
100
AcDbLine
10
-850
20
-2045.5
30
0
11
-850
21
-2054.5
31
0
0
LINE
5
586
100
AcDbEntity
8
0
100
AcDbLine
10
-1000
20
-2045.5
30
0
11
-850
21
-2045.5
31
0
0
LINE
5
587
100
AcDbEntity
8
0
100
AcDbLine
10
-970
20
-2300
30
0
11
-1000
21
-2300
31
0
0
LINE
5
588
100
AcDbEntity
8
0
100
AcDbLine
10
-850
20
-2300
30
0
11
-880
21
-2300
31
0
0
LINE
5
589
100
AcDbEntity
8
0
100
AcDbLine
10
-730
20
-2300
30
0
11
-760
21
-2300
31
0
0
LINE
5
590
100
AcDbEntity
8
0
100
AcDbLine
10
-940
20
-2300
30
0
11
-910
21
-2300
31
0
0
LINE
5
591
100
AcDbEntity
8
0
100
AcDbLine
10
-910
20
-2300
30
0
11
-940
21
-2300
31
0
0
LINE
5
592
100
AcDbEntity
8
0
100
AcDbLine
10
-790
20
-2300
30
0
11
-820
21
-2300
31
0
0
LINE
5
593
100
AcDbEntity
8
0
100
AcDbLine
10
-760
20
-2300
30
0
11
-760
21
-2309
31
0
0
LINE
5
594
100
AcDbEntity
8
0
100
AcDbLine
10
-760
20
-2309
30
0
11
-790
21
-2309
31
0
0
LINE
5
595
100
AcDbEntity
8
0
100
AcDbLine
10
-790
20
-2309
30
0
11
-790
21
-2300
31
0
0
LINE
5
596
100
AcDbEntity
8
0
100
AcDbLine
10
-420
20
-1800
30
0
11
-390
21
-1800
31
0
0
LINE
5
597
100
AcDbEntity
8
0
100
AcDbLine
10
-360
20
-1800
30
0
11
-330
21
-1800
31
0
0
LINE
5
598
100
AcDbEntity
8
0
100
AcDbLine
10
-540
20
-2309
30
0
11
-570
21
-2309
31
0
0
LINE
5
599
100
AcDbEntity
8
0
100
AcDbLine
10
-570
20
-2309
30
0
11
-570
21
-2300
31
0
0
LINE
5
600
100
AcDbEntity
8
0
100
AcDbLine
10
-360
20
-2300
30
0
11
-330
21
-2300
31
0
0
LINE
5
601
100
AcDbEntity
8
0
100
AcDbLine
10
-540
20
-2300
30
0
11
-540
21
-2309
31
0
0
LINE
5
602
100
AcDbEntity
8
0
100
AcDbLine
10
-480
20
-2300
30
0
11
-480
21
-2309
31
0
0
LINE
5
603
100
AcDbEntity
8
0
100
AcDbLine
10
-480
20
-2309
30
0
11
-510
21
-2309
31
0
0
LINE
5
604
100
AcDbEntity
8
0
100
AcDbLine
10
-510
20
-2309
30
0
11
-510
21
-2300
31
0
0
LINE
5
605
100
AcDbEntity
8
0
100
AcDbLine
10
-420
20
-2300
30
0
11
-420
21
-2309
31
0
0
LINE
5
606
100
AcDbEntity
8
0
100
AcDbLine
10
-420
20
-2309
30
0
11
-450
21
-2309
31
0
0
LINE
5
607
100
AcDbEntity
8
0
100
AcDbLine
10
-450
20
-2309
30
0
11
-450
21
-2300
31
0
0
LINE
5
608
100
AcDbEntity
8
0
100
AcDbLine
10
-480
20
-2300
30
0
11
-450
21
-2300
31
0
0
LINE
5
609
100
AcDbEntity
8
0
100
AcDbLine
10
-600
20
-2300
30
0
11
-600
21
-2054.5
31
0
0
LINE
5
610
100
AcDbEntity
8
0
100
AcDbLine
10
-390
20
-1791
30
0
11
-390
21
-1800
31
0
0
LINE
5
611
100
AcDbEntity
8
0
100
AcDbLine
10
-360
20
-1791
30
0
11
-390
21
-1791
31
0
0
LINE
5
612
100
AcDbEntity
8
0
100
AcDbLine
10
-360
20
-1800
30
0
11
-360
21
-1791
31
0
0
LINE
5
613
100
AcDbEntity
8
0
100
AcDbLine
10
-450
20
-1791
30
0
11
-450
21
-1800
31
0
0
LINE
5
614
100
AcDbEntity
8
0
100
AcDbLine
10
-420
20
-1791
30
0
11
-450
21
-1791
31
0
0
LINE
5
615
100
AcDbEntity
8
0
100
AcDbLine
10
-420
20
-1800
30
0
11
-420
21
-1791
31
0
0
LINE
5
616
100
AcDbEntity
8
0
100
AcDbLine
10
-510
20
-1791
30
0
11
-510
21
-1800
31
0
0
LINE
5
617
100
AcDbEntity
8
0
100
AcDbLine
10
-480
20
-1791
30
0
11
-510
21
-1791
31
0
0
LINE
5
618
100
AcDbEntity
8
0
100
AcDbLine
10
-480
20
-1800
30
0
11
-480
21
-1791
31
0
0
LINE
5
619
100
AcDbEntity
8
0
100
AcDbLine
10
-570
20
-1791
30
0
11
-570
21
-1800
31
0
0
LINE
5
620
100
AcDbEntity
8
0
100
AcDbLine
10
-540
20
-1791
30
0
11
-570
21
-1791
31
0
0
LINE
5
621
100
AcDbEntity
8
0
100
AcDbLine
10
-540
20
-1800
30
0
11
-540
21
-1791
31
0
0
LINE
5
622
100
AcDbEntity
8
0
100
AcDbLine
10
-600
20
-1800
30
0
11
-570
21
-1800
31
0
0
LINE
5
623
100
AcDbEntity
8
0
100
AcDbLine
10
-540
20
-1800
30
0
11
-510
21
-1800
31
0
0
LINE
5
624
100
AcDbEntity
8
0
100
AcDbLine
10
-480
20
-1800
30
0
11
-450
21
-1800
31
0
0
LINE
5
625
100
AcDbEntity
8
0
100
AcDbLine
10
-600
20
-2045.5
30
0
11
-600
21
-1800
31
0
0
LINE
5
626
100
AcDbEntity
8
0
100
AcDbLine
10
-330
20
-1791
30
0
11
-330
21
-1800
31
0
0
LINE
5
627
100
AcDbEntity
8
0
100
AcDbLine
10
-300
20
-1791
30
0
11
-330
21
-1791
31
0
0
LINE
5
628
100
AcDbEntity
8
0
100
AcDbLine
10
-300
20
-1800
30
0
11
-300
21
-1791
31
0
0
LINE
5
629
100
AcDbEntity
8
0
100
AcDbLine
10
-300
20
-1800
30
0
11
-300
21
-2300
31
0
0
LINE
5
630
100
AcDbEntity
8
0
100
AcDbLine
10
-420
20
-2300
30
0
11
-390
21
-2300
31
0
0
LINE
5
631
100
AcDbEntity
8
0
100
AcDbLine
10
-300
20
-2300
30
0
11
-300
21
-2309
31
0
0
LINE
5
632
100
AcDbEntity
8
0
100
AcDbLine
10
-300
20
-2309
30
0
11
-330
21
-2309
31
0
0
LINE
5
633
100
AcDbEntity
8
0
100
AcDbLine
10
-330
20
-2309
30
0
11
-330
21
-2300
31
0
0
LINE
5
634
100
AcDbEntity
8
0
100
AcDbLine
10
-600
20
-2300
30
0
11
-570
21
-2300
31
0
0
LINE
5
635
100
AcDbEntity
8
0
100
AcDbLine
10
-450
20
-2054.5
30
0
11
-600
21
-2054.5
31
0
0
LINE
5
636
100
AcDbEntity
8
0
100
AcDbLine
10
-450
20
-2045.5
30
0
11
-450
21
-2054.5
31
0
0
LINE
5
637
100
AcDbEntity
8
0
100
AcDbLine
10
-600
20
-2045.5
30
0
11
-450
21
-2045.5
31
0
0
LINE
5
638
100
AcDbEntity
8
0
100
AcDbLine
10
-570
20
-2300
30
0
11
-600
21
-2300
31
0
0
LINE
5
639
100
AcDbEntity
8
0
100
AcDbLine
10
-450
20
-2300
30
0
11
-480
21
-2300
31
0
0
LINE
5
640
100
AcDbEntity
8
0
100
AcDbLine
10
-330
20
-2300
30
0
11
-360
21
-2300
31
0
0
LINE
5
641
100
AcDbEntity
8
0
100
AcDbLine
10
-540
20
-2300
30
0
11
-510
21
-2300
31
0
0
LINE
5
642
100
AcDbEntity
8
0
100
AcDbLine
10
-510
20
-2300
30
0
11
-540
21
-2300
31
0
0
LINE
5
643
100
AcDbEntity
8
0
100
AcDbLine
10
-390
20
-2300
30
0
11
-420
21
-2300
31
0
0
LINE
5
644
100
AcDbEntity
8
0
100
AcDbLine
10
-360
20
-2300
30
0
11
-360
21
-2309
31
0
0
LINE
5
645
100
AcDbEntity
8
0
100
AcDbLine
10
-360
20
-2309
30
0
11
-390
21
-2309
31
0
0
LINE
5
646
100
AcDbEntity
8
0
100
AcDbLine
10
-390
20
-2309
30
0
11
-390
21
-2300
31
0
0
LINE
5
647
100
AcDbEntity
8
0
100
AcDbLine
10
-20
20
-1200
30
0
11
10
21
-1200
31
0
0
LINE
5
648
100
AcDbEntity
8
0
100
AcDbLine
10
40
20
-1200
30
0
11
70
21
-1200
31
0
0
LINE
5
649
100
AcDbEntity
8
0
100
AcDbLine
10
-140
20
-1709
30
0
11
-170
21
-1709
31
0
0
LINE
5
650
100
AcDbEntity
8
0
100
AcDbLine
10
-170
20
-1709
30
0
11
-170
21
-1700
31
0
0
LINE
5
651
100
AcDbEntity
8
0
100
AcDbLine
10
40
20
-1700
30
0
11
70
21
-1700
31
0
0
LINE
5
652
100
AcDbEntity
8
0
100
AcDbLine
10
-140
20
-1700
30
0
11
-140
21
-1709
31
0
0
LINE
5
653
100
AcDbEntity
8
0
100
AcDbLine
10
-80
20
-1700
30
0
11
-80
21
-1709
31
0
0
LINE
5
654
100
AcDbEntity
8
0
100
AcDbLine
10
-80
20
-1709
30
0
11
-110
21
-1709
31
0
0
LINE
5
655
100
AcDbEntity
8
0
100
AcDbLine
10
-110
20
-1709
30
0
11
-110
21
-1700
31
0
0
LINE
5
656
100
AcDbEntity
8
0
100
AcDbLine
10
-20
20
-1700
30
0
11
-20
21
-1709
31
0
0
LINE
5
657
100
AcDbEntity
8
0
100
AcDbLine
10
-20
20
-1709
30
0
11
-50
21
-1709
31
0
0
LINE
5
658
100
AcDbEntity
8
0
100
AcDbLine
10
-50
20
-1709
30
0
11
-50
21
-1700
31
0
0
LINE
5
659
100
AcDbEntity
8
0
100
AcDbLine
10
-80
20
-1700
30
0
11
-50
21
-1700
31
0
0
LINE
5
660
100
AcDbEntity
8
0
100
AcDbLine
10
-200
20
-1700
30
0
11
-200
21
-1454.5000000000002
31
0
0
LINE
5
661
100
AcDbEntity
8
0
100
AcDbLine
10
10
20
-1191
30
0
11
10
21
-1200
31
0
0
LINE
5
662
100
AcDbEntity
8
0
100
AcDbLine
10
40
20
-1191
30
0
11
10
21
-1191
31
0
0
LINE
5
663
100
AcDbEntity
8
0
100
AcDbLine
10
40
20
-1200
30
0
11
40
21
-1191
31
0
0
LINE
5
664
100
AcDbEntity
8
0
100
AcDbLine
10
-50
20
-1191
30
0
11
-50
21
-1200
31
0
0
LINE
5
665
100
AcDbEntity
8
0
100
AcDbLine
10
-20
20
-1191
30
0
11
-50
21
-1191
31
0
0
LINE
5
666
100
AcDbEntity
8
0
100
AcDbLine
10
-20
20
-1200
30
0
11
-20
21
-1191
31
0
0
LINE
5
667
100
AcDbEntity
8
0
100
AcDbLine
10
-110
20
-1191
30
0
11
-110
21
-1200
31
0
0
LINE
5
668
100
AcDbEntity
8
0
100
AcDbLine
10
-80
20
-1191
30
0
11
-110
21
-1191
31
0
0
LINE
5
669
100
AcDbEntity
8
0
100
AcDbLine
10
-80
20
-1200
30
0
11
-80
21
-1191
31
0
0
LINE
5
670
100
AcDbEntity
8
0
100
AcDbLine
10
-170
20
-1191
30
0
11
-170
21
-1200
31
0
0
LINE
5
671
100
AcDbEntity
8
0
100
AcDbLine
10
-140
20
-1191
30
0
11
-170
21
-1191
31
0
0
LINE
5
672
100
AcDbEntity
8
0
100
AcDbLine
10
-140
20
-1200
30
0
11
-140
21
-1191
31
0
0
LINE
5
673
100
AcDbEntity
8
0
100
AcDbLine
10
-200
20
-1200
30
0
11
-170
21
-1200
31
0
0
LINE
5
674
100
AcDbEntity
8
0
100
AcDbLine
10
-140
20
-1200
30
0
11
-110
21
-1200
31
0
0
LINE
5
675
100
AcDbEntity
8
0
100
AcDbLine
10
-80
20
-1200
30
0
11
-50
21
-1200
31
0
0
LINE
5
676
100
AcDbEntity
8
0
100
AcDbLine
10
-200
20
-1445.5
30
0
11
-200
21
-1200
31
0
0
LINE
5
677
100
AcDbEntity
8
0
100
AcDbLine
10
70
20
-1191
30
0
11
70
21
-1200
31
0
0
LINE
5
678
100
AcDbEntity
8
0
100
AcDbLine
10
100
20
-1191
30
0
11
70
21
-1191
31
0
0
LINE
5
679
100
AcDbEntity
8
0
100
AcDbLine
10
100
20
-1200
30
0
11
100
21
-1191
31
0
0
LINE
5
680
100
AcDbEntity
8
0
100
AcDbLine
10
100
20
-1200
30
0
11
100
21
-1700
31
0
0
LINE
5
681
100
AcDbEntity
8
0
100
AcDbLine
10
-20
20
-1700
30
0
11
10
21
-1700
31
0
0
LINE
5
682
100
AcDbEntity
8
0
100
AcDbLine
10
100
20
-1700
30
0
11
100
21
-1709
31
0
0
LINE
5
683
100
AcDbEntity
8
0
100
AcDbLine
10
100
20
-1709
30
0
11
70
21
-1709
31
0
0
LINE
5
684
100
AcDbEntity
8
0
100
AcDbLine
10
70
20
-1709
30
0
11
70
21
-1700
31
0
0
LINE
5
685
100
AcDbEntity
8
0
100
AcDbLine
10
-200
20
-1700
30
0
11
-170
21
-1700
31
0
0
LINE
5
686
100
AcDbEntity
8
0
100
AcDbLine
10
-50
20
-1454.5000000000002
30
0
11
-200
21
-1454.5000000000002
31
0
0
LINE
5
687
100
AcDbEntity
8
0
100
AcDbLine
10
-50
20
-1445.5
30
0
11
-50
21
-1454.5000000000002
31
0
0
LINE
5
688
100
AcDbEntity
8
0
100
AcDbLine
10
-200
20
-1445.5
30
0
11
-50
21
-1445.5
31
0
0
LINE
5
689
100
AcDbEntity
8
0
100
AcDbLine
10
-170
20
-1700
30
0
11
-200
21
-1700
31
0
0
LINE
5
690
100
AcDbEntity
8
0
100
AcDbLine
10
-50
20
-1700
30
0
11
-80
21
-1700
31
0
0
LINE
5
691
100
AcDbEntity
8
0
100
AcDbLine
10
70
20
-1700
30
0
11
40
21
-1700
31
0
0
LINE
5
692
100
AcDbEntity
8
0
100
AcDbLine
10
-140
20
-1700
30
0
11
-110
21
-1700
31
0
0
LINE
5
693
100
AcDbEntity
8
0
100
AcDbLine
10
-110
20
-1700
30
0
11
-140
21
-1700
31
0
0
LINE
5
694
100
AcDbEntity
8
0
100
AcDbLine
10
10
20
-1700
30
0
11
-20
21
-1700
31
0
0
LINE
5
695
100
AcDbEntity
8
0
100
AcDbLine
10
40
20
-1700
30
0
11
40
21
-1709
31
0
0
LINE
5
696
100
AcDbEntity
8
0
100
AcDbLine
10
40
20
-1709
30
0
11
10
21
-1709
31
0
0
LINE
5
697
100
AcDbEntity
8
0
100
AcDbLine
10
10
20
-1709
30
0
11
10
21
-1700
31
0
0
ENDSEC
0
SECTION
2
OBJECTS
0
DICTIONARY
5
C
100
AcDbDictionary
3
ACAD_GROUP
350
D
3
ACAD_MLINESTYLE
350
17
0
DICTIONARY
5
D
100
AcDbDictionary
0
DICTIONARY
5
1A
330
C
100
AcDbDictionary
0
DICTIONARY
5
17
100
AcDbDictionary
0
ENDSEC
0
EOF
